Ads

Fiend Battle (Shin Megami Tensei: Devil Survivor 2) Guitar Tab

Submitted: Feb 24, 2012 by Hitoshura89

0
Download | Listen
Game: Shin Megami Tensei: Devil Survivor 2
Composer(s): Kenichi Tsuchiya, Atsushi Kitajoh, Ito Kenji, Ryota Kozuka, Toshiki Konishi)
Style: Transcription
Series: Megami Tensei

AutoScroll: Slow | Medium | Fast
Fiend Battle
Game: Shin Megami Tensei: Devil Survivor 2
Composer: Ito Kenji
Tabbed by: Hitoshura 89
Tuning: E Standard

Intro/ Main Verse / End


E|------------------|     
B|------------------|      
G|------------------|  X7  
D|--4--4--5-5--X-5--|      
A|--2--2--3-3--X-3--|      
E|------------------|      


Then play this once



E|------------------|
B|------------------|
G|------------------|
D|------------------|
A|--5--5--5-5--X-5--|
E|--3--3--3-3--X-3--|


Verse

E|---------------------------------------------------|
B|---------------------------------------------------|
G|---------------------------------------------------| X2
D|---------------------------------------------------|
A|--2-----------3-----------5-----------7------------|
E|--0-0-0-0-0-0-1-1-1-1-1-1-3-3-3-3-3-3-5-5-5-5-5-5--|
      * * * * *   * * * * *   * * * * *   * * * * *

Verse 2


E|---------------------------------------------|
B|---------------------------------------------|
G|---------------------------------------------| X1
D|---------------------------------------------| 
A|--2-----------3-----------5-----------7-7-7--|
E|--0-0-0-0-0-0-1-1-1-1-1-1-3-3-3-3-3-3-5-5-5--|
      * * * * *   * * * * *   * * * * *   

Verse 3

E|--------------------------------------|
B|--------------------------------------|
G|--------------------------------------| X1
D|--------------------------------------|
A|--2-----------3-----------5-5-5--5-5--|
E|--0-0-0-0-0-0-1-1-1-1-1-1-3-3-3--3-3--|
Login or Register to remove this ad.