Ads

Main Theme (Shenmue) Guitar Tab

Submitted: Jan 17, 2010 by LTRobson (Last updated: Jan 18, 2010)

5
Average: 5 (3 votes)
Download | Listen
Game: Shenmue
Composer(s): Takenobu Mitsuyoshi
Style: Arrangement, Fingerstyle

AutoScroll: Slow | Medium | Fast
Shenmue - Main Theme (Dreamcast)
Tabbed by LTRobson Jan 2010

Standard tuning

|-----------------------------------------------------------------
|-4---3-----------------------------------------------------------
|---------3---5---0---------------0-------2-----------------------
|-----------------------------3-----------------------------------
|-3-------3-------3-------3---------------------------------------
|---------------------------------1-------1-------1-------1-------

|-----------------------------------------------------------------
|-4---3---------------------------------------------------1---3---
|---------3---5---0---------------0-------3-----------------------
|-----------------------------3-----------------------------------
|-3-------3-------3-------3---------------------------------------
|---------------------------------1-------1-------1-------1---3---

|-----------------------------------------------------------------
|-4-3h4p3---------------------------------------------------------
|---------3---5---0---------------3--p2---0-------------------0---
|-----------------------------3---------------------------3-------
|---------------------------------1-------1-------1-------1-------
|-4-------4-------4-------4---------------------------------------

|-----------------------------------------------------------------
|-----------------------------------------------------------------
|-----------------------------------------------------------------
|-3-------------------------------1-------------------------------
|-3-------3-------3-------3-------3-------3-----------------------
|-------------------------------------------------3-3-3-3-3-3-3-3-

|-----------------------------------------------------------------
|-4---3-----------------------------------------------------------
|---------3---5---0---------------0-------2-----------------------
|-----------------------------3-----------------------------------
|-3-------3-------3-------3---------------------------------------
|---------------------------------1-------1-------1-------1-------

|-----------------------------------------------------------------
|-4---3---------------------------------------------------1---3---
|---------3---5---0---------------0-------3-----------------------
|-----------------------------3-----------------------------------
|-3-------3-------3-------3---------------------------------------
|---------------------------------1-------1-------1-------1---3---

|-----------------------------------------------------------------
|-4-3h4p3---------------------------------------------------------
|---------3---5---0---------------3--p2---0-------------------0---
|-----------------------------3---------------------------3-------
|---------------------------------1-------1-------1-------1-------
|-4-------4-------4-------4---------------------------------------

|-----------------------------------------------------------------
|-----------------------------------------------------------------
|---------------------------------------------------------0---3---
|-3-------------------------------1-------------------3-----------
|-3-------3-------3-------3-------3-------3-------3-------3-------
|-----------------------------------------------------------------

Next section
|---------3-------------------------------------------------------
|-----------------6-------4-------3-------------------------------
|-5-----------------------------------3---------------------------
|-----------------------------------------3-----------------------
|-----------------------------------------------------------------
|-4---------------4---------------3---------------3-------3--------

|---------3-------1-----------------------------------------------
|-1-----------------------4-------3-------------------------------
|-------------------------------------3---------------------------
|---------------------------------1-------1-------1-------1-------
|-----------------1-----------------------------------------------
|-1---------------------------------------------------------------

|---------3-------------------------------------------------------
|-----------------6-------4-------3-------1-------0---------------
|-5---------------------------------------------------------------
|-----------------------------------------------------------------
|-----------------------------------------------------------------
|-4---------------4---------------3---------------3--------3------

|-----------------------------------------------------------------
|-4-------3-----------3---4---6---4---------------3---------------
|-----------------5---------------------------------------3-------
|-----------------------------------------------------------------
|---------------------------------1-------1-------1-------1-------
|-4---------------4-----------------------------------------------
Login or Register to remove this ad.

2 comments on Main Theme

Simple bass line - just plod

Simple bass line - just plod through 4 beats to a bar and look at the melody separately to start off, then try and keep a steady rhythm while you play both!

This game has some really

This game has some really good music in it. I never had a dreamcast so I never played it, I should look at the rest of the music.