Ads

Area G Missile Command (Shatterhand) Bass/Guitar Tab

Submitted: May 14, 2016 by Jacob31593

0
Download | Listen
Game: Shatterhand
Composer(s): Hiroyuki Iwatsuki, Iku Mizutani
Style: 2 or more instruments, Transcription

AutoScroll: Slow | Medium | Fast

Area G Missile Command
Composed by Iku Mizutani and/or Hiroyuki Iwatsuki
Tabbed by Jacob31593
May 14th 2015

204bpm

Guitar 1

      Q     E  Q    E  Q        E  Q    Q     E  E   E     Q     E  Q    E  Q        E  Q    Q     E  E   E   
E||-------------------------|---------------------------|------------------------|---------------------------|
B||-----------------8-------|--10-------8---------------|----------------8-------|--10-------8---------------|
G||*--7----10--7-------7----|------7---------10--9------|--7----10--7-------7----|------7---------10--9------|
D||*------------------------|-----------------------10--|------------------------|-----------------------10--|
A||-------------------------|---------------------------|------------------------|---------------------------|
E||-------------------------|---------------------------|------------------------|---------------------------|


                                                                        PH                         
  E   E   E   E   E   E   E   E     E   E   E  E   E   E   E   E        E  E   E  E  E   E  E  E   
-----13--12------13--12----------|--------------------------------|-------------------------------|
-------------13----------13------|--------------------------------|-----------10--------11--------|
-----------------------------10--|--9------12--9------------------|-------------------------------|
---------------------------------|-----10---------10------10--12--|--<>12-------------------------|
---------------------------------|--------------------12----------|-------------------------------|
---------------------------------|--------------------------------|-------------------------------|


   E  E  E   E  E   Q.         E  E  E   H        E     E   E   E   E   E  E   E   E   
---------------------------|-------------------------|--------------------------------|
------------10-------------|-------------------------|--------------------------------|
--12---------------10------|--12-----9--10-----------|-----------------10--9----------|
---------------------------|-------------------------|---------10--12---------10--12--|
---------------------------|-------------------------|-----12-------------------------|
---------------------------|-------------------------|--------------------------------|


  E  E   E  E  E   E  E  E      E  E  E   E  E   Q.         E  E  E   H        E   
----------------------------|---------------------------|-------------------------|
--------10--------11--------|------------10-------------|-------------------------|
----------------------------|--12---------------10------|--12-----9--10-----------|
----------------------------|---------------------------|-------------------------|
----------------------------|---------------------------|-------------------------|
----------------------------|---------------------------|-------------------------|


  E   E   E   E   E  E   E   E     E  E   Q.       E   E   E      Q      E   E  E   Q.      
--------------------------------|-------------------------15--|--17~----18--17-------------|
--------------------------------|--------15~------17--18------|--------------------17------|
-----------------10--9----------|-----------------------------|----------------------------|
---------10--12---------10--12--|-----------------------------|----------------------------|
-----12-------------------------|-----------------------------|----------------------------|
--------------------------------|-----------------------------|----------------------------|


              |-----3-----|                                                             
   H          Q     Q     Q        Q     E   H         E     E  E   Q.      E   E   E   
--15~--------15----------------|------------17~--------L--|------------------------15--|
-------------------18----17----|--18----15----------------|--------15------17--18------|
-------------------------------|--------------------------|----------------------------|
-------------------------------|--------------------------|----------------------------|
-------------------------------|--------------------------|----------------------------|
-------------------------------|--------------------------|----------------------------|


                                                  PH    PH                                        
   Q      E   E  E   Q.          H          E     E     E   E     E   E   E   E   E   E   E   E   
--17~----18--20-----22~------|--24~--------24--------------24--|---------------------------------|
-----------------------------|-----------------<>17--<>20------|-----18--17----------------------|
-----------------------------|---------------------------------|-------------17------------------|
-----------------------------|---------------------------------|-----------------15--14----------|
-----------------------------|---------------------------------|-------------------------15--17--|
-----------------------------|---------------------------------|---------------------------------|


     PH                                                                               
     E  E   E  E  E   E  E  E      E  E  E   E  E   Q.         E  E  E   H        E   
-------------------------------|---------------------------|-------------------------|
-----------10--------11--------|------------10-------------|-------------------------|
-------------------------------|--12---------------10------|--12-----9--10-----------|
-------------------------------|---------------------------|-------------------------|
--<>17-------------------------|---------------------------|-------------------------|
-------------------------------|---------------------------|-------------------------|


  E   E   E   E   E  E   E   E     E  E   E  E  E   E  E  E      E  E  E   E  E   Q.      
--------------------------------|----------------------------|---------------------------|
--------------------------------|--------10--------11--------|------------10-------------|
-----------------10--9----------|----------------------------|--12---------------10------|
---------10--12---------10--12--|----------------------------|---------------------------|
-----12-------------------------|----------------------------|---------------------------|
--------------------------------|----------------------------|---------------------------|


   E  E  E   H        E     E   E   E   E   E  E   E   E     E  E   Q     E   E   E   E    
-------------------------|--------------------------------|--------------------------17~--|
-------------------------|--------------------------------|--------17----17--18--20-------|
--12-----9--10-----------|-----------------10--9----------|-------------------------------|
-------------------------|---------10--12---------10--12--|-------------------------------|
-------------------------|-----12-------------------------|-------------------------------|
-------------------------|--------------------------------|-------------------------------|


  Q     E   E  E   Q.          H          E   E   E   E      Q     E   E  E   Q.       
--L------------------------|---------------------17--18~--|--L----17------------------|
-------20--18-----17~------|--18~--------18--20-----------|-----------20-----18~------|
---------------------------|------------------------------|---------------------------|
---------------------------|------------------------------|---------------------------|
---------------------------|------------------------------|---------------------------|
---------------------------|------------------------------|---------------------------|


  E  E   Q     E   E   E   E      Q     E   E  E   E   E   E      H          H          
------------------17--18--20~--|--L----18--17-----18--17------|--17~--------19~--------|
--------20----20---------------|--------------------------20--|------------------------|
-------------------------------|------------------------------|------------------------|
-------------------------------|------------------------------|------------------------|
-------------------------------|------------------------------|------------------------|
-------------------------------|------------------------------|------------------------|


   E   E  E   H         E      E   E   E   E   E   E   Q       E   E   E   E   E   E   E   E   
--20--20-----21~--------L--|--22----------20----------------|---------------------------------|
---------------------------|------22----------20------------|-----18--17------18--17------15--|
---------------------------|----------19----------17--15----|--L----------17----------17------|
---------------------------|--------------------------------|---------------------------------|
---------------------------|--------------------------------|---------------------------------|
---------------------------|--------------------------------|---------------------------------|


   E   E  E   E   E  E   E   E     E   E   E  E   E   E   E   E      E   E   E   E   E   E   Q     
--------------------------------|--------------------------------|--22----------20----------------|
------------------------15--15--|-----17--17-----18--17--15------|------22----------20------------|
--15--15-----17--17-------------|----------------------------17--|----------19----------17--15----|
--------------------------------|--------------------------------|--------------------------------|
--------------------------------|--------------------------------|--------------------------------|
--------------------------------|--------------------------------|--------------------------------|


  E   E   E   E   E   E   E   E      E   E  E   E   E  E   E   E     E   E   E  E   E   E   E   E   
---------------------------------|--------------------------------|--------------------------------|
-----18--17------18--17------15--|------------------------15--15--|-----17--17-----18--17--15------|
--L----------17----------17------|--15--15-----17--17-------------|----------------------------17--|
---------------------------------|--------------------------------|--------------------------------|
---------------------------------|--------------------------------|--------------------------------|
---------------------------------|--------------------------------|--------------------------------|


                                               PH                                               
   Q     E   Q     Q     E     E   Q     E     E   E   E   E      E   E  E   E   E  E   E   E   
----------------------------|-----------24--------24--22--20--|--22--22-----20--20-----22--22--|
--------18--------20--------|-----22--------<>18--------------|--------------------------------|
--15--------17----------19--|--L------------------------------|--------------------------------|
----------------------------|---------------------------------|--------------------------------|
----------------------------|---------------------------------|--------------------------------|
----------------------------|---------------------------------|--------------------------------|


  E   E   E   E   E   Q.         
---------------------17~-------||
-----------------17------------||
------------------------------*||
-------------19---------------*||
---------19--------------------||
-----17------------------------||


Guitar 2

      Q     E  Q    E  Q        E  Q    Q    E   E   E     Q     E  Q    E  Q        E  Q    Q    E   E   E   
E||-------------------------|---------------------------|------------------------|---------------------------|
B||-------------------------|---------------------------|------------------------|---------------------------|
G||*----------------7-------|--10-------9----7----------|----------------7-------|--10-------9----7----------|
D||*--7----10--7-------7----|------7------------10------|--7----10--7-------7----|------7------------10------|
A||-------------------------|-----------------------10--|------------------------|-----------------------10--|
E||-------------------------|---------------------------|------------------------|---------------------------|


                                                                          PH                         
  E   E   E   E   E   E   E   E      E   E   E   E   E   E   E   E        E  E   E  E  E   E  E  E   
-----10----------10--------------|----------------------------------|-------------------------------|
---------13----------13----------|----------------------------------|-------------------------------|
-------------12----------12------|----------------------------------|-----------10--------12--------|
-----------------------------12--|--10------14--10------------------|--<>12-------------------------|
---------------------------------|------10----------10------10--12--|-------------------------------|
---------------------------------|----------------------12----------|-------------------------------|


  E  E  E   E  E   Q.        E  E   E   H        E     E   E   E   E   E   E   E   E   
--------------------------|-------------------------|---------------------------------|
--------------------------|-------------------------|---------------------------------|
--9--------10-------------|--9----------------------|---------------------------------|
------------------12------|--------10--12-----------|-----------------12--10----------|
--------------------------|-------------------------|---------10--12----------10--12--|
--------------------------|-------------------------|-----12--------------------------|


  E  E   E  E  E   E  E  E     E  E  E   E  E   Q.        E  E   E   H        E   
----------------------------|--------------------------|-------------------------|
----------------------------|--------------------------|-------------------------|
--------10--------12--------|--9--------10-------------|--9----------------------|
----------------------------|------------------12------|--------10--12-----------|
----------------------------|--------------------------|-------------------------|
----------------------------|--------------------------|-------------------------|


  E   E   E   E   E   E   E   E     E  E   Q.       E   E   E      Q      E   E  E   Q.       
---------------------------------|-----------------------------|-----------------------------|
---------------------------------|-------------------------17--|--18~----20--18--------------|
---------------------------------|--------15~------17--19------|--------------------18~------|
-----------------12--10----------|-----------------------------|-----------------------------|
---------10--12----------10--12--|-----------------------------|-----------------------------|
-----12--------------------------|-----------------------------|-----------------------------|


              |-----3-----|                                                                 
   H          Q     Q     Q        Q     E   Q     E   E   E     E  E   Q.      E   E   E   
-------------------------------|------------------------------|----------------------------|
-------------17----15----------|--15--------18----17--15------|------------------------17--|
--15~--------------------18----|--------14----------------17--|--------15------17--19------|
-------------------------------|------------------------------|----------------------------|
-------------------------------|------------------------------|----------------------------|
-------------------------------|------------------------------|----------------------------|


   Q      E   E  E   Q.          H          E   E   E   E     E   E   E   E   E   E   E   E   
-----------------------------|-----------------17--20------|---------------------------------|
-------------17-----18~------|--20~--------20----------20--|---------------------------------|
--17~----19------------------|-----------------------------|---------------------------------|
-----------------------------|-----------------------------|-----15--14----------------------|
-----------------------------|-----------------------------|-------------15----------10--12--|
-----------------------------|-----------------------------|-----------------13--12----------|


     PH                                                                              
     E  E   E  E  E   E  E  E     E  E  E   E  E   Q.        E  E   E   H        E   
-------------------------------|--------------------------|-------------------------|
-------------------------------|--------------------------|-------------------------|
-----------10--------12--------|--9--------10-------------|--9----------------------|
--<>12-------------------------|------------------12------|--------10--12-----------|
-------------------------------|--------------------------|-------------------------|
-------------------------------|--------------------------|-------------------------|


  E   E   E   E   E   E   E   E     E  E   E  E  E   E  E  E     E  E  E   E  E   Q.      
---------------------------------|----------------------------|--------------------------|
---------------------------------|----------------------------|--------------------------|
---------------------------------|--------10--------12--------|--9--------10-------------|
-----------------12--10----------|----------------------------|------------------12------|
---------10--12----------10--12--|----------------------------|--------------------------|
-----12--------------------------|----------------------------|--------------------------|


  E  E   E   H        E     E   E   E   E   E   E   E   E     E  E   Q     E   E   E   E    
-------------------------|---------------------------------|-------------------------------|
-------------------------|---------------------------------|-------------------------------|
--9----------------------|---------------------------------|--------17----17--19--21--21~--|
--------10--12-----------|-----------------12--10----------|-------------------------------|
-------------------------|---------10--12----------10--12--|-------------------------------|
-------------------------|-----12--------------------------|-------------------------------|


  Q     E   E  E   Q.          H          E   E   E   E      Q     E   E  E   Q.       
---------------------------|------------------------------|---------------------------|
---------------------------|---------------------18--20~--|--L----18------------------|
--L----21--19-----18~------|--19~--------19--21-----------|-----------21-----19~------|
---------------------------|------------------------------|---------------------------|
---------------------------|------------------------------|---------------------------|
---------------------------|------------------------------|---------------------------|


  E  E   Q     E   E   E   E      Q     E   E  E   E   E   E      H          H          
--------------------------17~--|--L---------------------------|------------------------|
------------------18--20-------|-------20--18-----20--18--17--|------------------------|
--------21----21---------------|------------------------------|--18~--------19~--------|
-------------------------------|------------------------------|------------------------|
-------------------------------|------------------------------|------------------------|
-------------------------------|------------------------------|------------------------|


   E   E  E   H         E      E   E   E   E   E   E   Q       E   E   E   E   E   E   E   E   
---------------------------|--17----------15----------------|---------------------------------|
--17--17-----17~--------L--|------15----------13------------|---------------------------------|
---------------------------|----------14----------12--------|---------------------------------|
---------------------------|--------------------------15----|--L--15--14------15--14----------|
---------------------------|--------------------------------|-------------15----------15--17--|
---------------------------|--------------------------------|---------------------------------|


   E   E  E   E   E  E   E   E     E   E   E  E   E   E   E   E      E   E   E   E   E   E   Q     
--------------------------------|--------------------------------|--17----------15----------------|
--------------------------------|----------------15--------------|------15----------13------------|
--------------------------------|--------------------17--15--14--|----------14----------12--------|
--15--15-----17--17-----15--15--|-----17--17---------------------|--------------------------15----|
--------------------------------|--------------------------------|--------------------------------|
--------------------------------|--------------------------------|--------------------------------|


  E   E   E   E   E   E   E   E      E   E  E   E   E  E   E   E     E   E   E  E   E   E   E   E   
---------------------------------|--------------------------------|--------------------------------|
---------------------------------|--------------------------------|----------------15--------------|
---------------------------------|--------------------------------|--------------------17--15--14--|
--L--15--14------15--14----------|--15--15-----17--17-----15--15--|-----17--17---------------------|
-------------15----------15--17--|--------------------------------|--------------------------------|
---------------------------------|--------------------------------|--------------------------------|


   Q     E   Q     Q     E     E   Q     E   E   E   E   E      E   E  E   E   E  E   E   E   
----------------------------|-------------------------------|--------------------------------|
----------------------------|-----------17--18--17--15------|--15--15----------------15--15--|
----------------------------|-----14--------------------17--|-------------17--17-------------|
--------15--------17--------|-------------------------------|--------------------------------|
--13--------15----------17--|--L----------------------------|--------------------------------|
----------------------------|-------------------------------|--------------------------------|


  E   E   E   E   E   Q.         
-------------------------------||
---------------------17~-------||
-----------------14-----------*||
-------------14---------------*||
---------12--------------------||
-----12------------------------||

Bass

      E  E  E  E  E  E  E  E     E  E  E  Q    E  E  E     E  E  E  E  E  E  E  E     E  E  E  Q    E  E  E   
G||---------------------------|-------------------------|--------------------------|-------------------------|
D||*--------------------------|----------------------2--|--------------------------|----------------------2--|
A||*--5--5--5--5--5--5--5--5--|--5--5--5--3----0--3-----|--5--5--5--5--5--5--5--5--|--5--5--5--3----0--3-----|
E||---------------------------|-------------------------|--------------------------|-------------------------|


  H        Q.     E     H        E  E  E  E     E  E  E  E  E  E  E  E     E  E  E  E  E  E  E  E   
---------------------|-----------------------|--------------------------|--------------------------|
---------------------|-----------------------|--------------------------|--------------------------|
--3--------L------3--|--L--------3--0--3--5--|--5--5--5--5--5--5--5--5--|--5--5--5--5--5--5--5--5--|
---------------------|-----------------------|--------------------------|--------------------------|


  E  E  E  E  E  E  E  E     E  E  E  E  E  E  E  E     E  E  E  E  E  E  E  E     E  E  E  E  E  E  E  E   
--------------------------|--------------------------|--------------------------|--------------------------|
--------------------------|--------------3--2--------|--------------------------|--------------------------|
--5--5--5--5--5--5--5--5--|--5--0--3--5--------3--5--|--1--1--1--1--1--1--1--1--|--1--1--1--1--1--1--1--1--|
--------------------------|--------------------------|--------------------------|--------------------------|


  E  E  E  E  E  E  E  E     E  E  E  E  E  E  E  E     E  E  E  E  E  E  E  E     E  E  E  E  E  E  E  E   
--------------------------|--------------------------|--------------------------|--------------------------|
--------------------------|--------------3--2--------|-----------3-----------3--|-----------5-----------5--|
--1--1--1--1--1--1--1--1--|--1--0--3--5--------3--5--|--------5-----------5-----|--------7-----------7-----|
--------------------------|--------------------------|--3--3--------3--3--------|--5--5--------5--5--------|


  E  E  E  E  E  E  E  E     E  E  E  E  E  E  E  E     E  E  E  E  E  E  E  E     E  E  E  E  E  E  E  E   
--------------------------|--------------------------|--------------------------|--------------------------|
-----------3-----------5--|--------------------------|-----------3-----------3--|-----------5-----------5--|
--------5-----------7-----|--5--5--3--3--1--1--------|--------5-----------5-----|--------7-----------7-----|
--3--3--------5--5--------|--------------------5--5--|--3--3--------3--3--------|--5--5--------5--5--------|


  E  E  E  E  E  E  E  E     E  E  Q    E  Q    E     E  E  E  E  E  E  E  E     E  E  E  E  E  E  E  E   
--------------------------|------------------------|--------------------------|--------------------------|
-----------8--------8-----|------------------------|--------------------------|--------------------------|
--------8--------8--------|-----3--3----3--3----5--|--5--5--5--5--5--5--5--5--|--5--5--5--5--5--5--5--5--|
--6--6--------6--------8--|------------------------|--------------------------|--------------------------|


  E  E  E  E  E  E  E  E     E  E  E  E  E  E  E  E     E  E  E  E  E  E  E  E     E  E  E  E  E  E  E  E   
--------------------------|--------------------------|--------------------------|--------------------------|
--------------------------|--------------3--2--------|--------------------------|--------------------------|
--5--5--5--5--5--5--5--5--|--5--0--3--5--------3--5--|--1--1--1--1--1--1--1--1--|--1--1--1--1--1--1--1--1--|
--------------------------|--------------------------|--------------------------|--------------------------|


  E  E  E  E  E  E  E  E     E  E  E  E  E  E  E  E     E  E  E  E  E  E  E  E     E  E  E  E  E  E  E  E   
--------------------------|--------------------------|--------------------------|--------------------------|
--------------------------|--------------3--2--------|--------------------------|--------------------------|
--1--1--1--1--1--1--1--1--|--1--0--3--5--------3--5--|--3--3--3--3--3--3--3--3--|--4--4--4--4--4--4--4--4--|
--------------------------|--------------------------|--------------------------|--------------------------|


  E  E  E  E  E  E  E  E     E  E  E  E  E  E  E  E     E  E  E  E  E  E  E  E     E  E  E  E  E  E  E  E   
--------------------------|--------------------------|--------------------------|--------------------------|
--0--0--0--0--0--0--0--0--|--1--1--1--1--1--1--1--1--|--2--2--2--2--2--2--2--2--|--------------------------|
--------------------------|--------------------------|--------------------------|--3--3--3--3--3--3--3--3--|
--------------------------|--------------------------|--------------------------|--------------------------|


  E  E  E  E  E  E  E  E     E  E  E  Q    E  E  E     E  E  E  E  E  E  Q       E  E  E  E  E  E  E  E   
--------------------------|-----------2----2--------|-------------------------|--------------------------|
--------------------------|--------2----------2-----|-------------------------|--------------------------|
--0--0--0--0--0--0--0--0--|--0--0----------------0--|--5--5--5--3--3--3--1----|--L--1--1--1--1--1--1--1--|
--------------------------|-------------------------|-------------------------|--------------------------|


  E  E  E  E  E  E  E  E     E  E  E  E  E  E  E  E     E  E  E  E  E  E  Q       E  E  E  E  E  E  E  E   
--------------------------|--------------------------|-------------------------|--------------------------|
--------------------------|--------------------------|-------------------------|--------------------------|
-----------0--0--0--1--1--|--1--3--3--3--1--1--3--3--|--5--5--5--3--3--3--1----|--L--1--1--1--1--1--1--1--|
--3--3--3-----------------|--------------------------|-------------------------|--------------------------|


  E  E  E  E  E  E  E  E     E  E  E  E  E  E  E  E     E  E  E  E  E  E  E  E     E  E  E  E  E  E  E  E   
--------------------------|--------------------------|--------------------------|--------------------------|
--------------------------|--------------------------|--------------------------|--------------------------|
-----------0--0--0--1--1--|--1--3--3--3--1--1--3--3--|--------------0--0--0--0--|--1--1--1--1--3--3--3--3--|
--3--3--3-----------------|--------------------------|--3--3--3--3--------------|--------------------------|


  E  E  E  E  E  E  E  E     E  E  E  E  E  E  E  E     
--------------------------|---------------------------||
--------------------------|--------------------------*||
--5--5-----3--3-----5--5--|-----0--0--0--0--0--2--4--*||
--------------------------|---------------------------||




Duration Legend
---------------
W - whole
H - half
Q - quarter
E - 8th
. - note dotted
|-n-|  - n-tuplets


Tablature Legend
----------------
L - tied note
PH - pitch harmonic
~ - vibrato
Login or Register to remove this ad.