"Unknown" Orgel Song (Serial Experiments Lain (PS)) Guitar Tab

Submitted: Jul 26, 2013 by tomorning (Last updated: Oct 10, 2013)

5
Average: 5 (3 votes)
Download | Listen
Game: Serial Experiments Lain (PS)
Composer(s): Unknown
Style: Arrangement, Fingerstyle

AutoScroll: Slow | Medium | Fast
                             "unknown" Orgel song from PS
                                serial experiments lain

tabbed by to*morning

(C A D G B E) - 

         con melancolia Q=83
  3/4
         Gtr I
||-----0-------|-3-1-0---0--|-0-(0)---1-0---|-----1---------|-0----|
||-6-----3---3-|-------3-1--|-1-(1)-------3-|-1-------0-2-3-|-2----|
||-7-------2---|-3-2-0------|---------3-----|---2-2---------|------|
||---0---3-----|------------|-------2-------|-------------3-|------|
||-------------|------------|----3----------|---3-----------|-0----|
||-5-----------|------------|---------------|-5-------------|------|


|-----0-------|-3-1-0---0--|-0-(0)---1-0---|-----1----|-1--0-------|
|-6-----3---3-|-------3-1--|-1-(1)-------3-|-1------3-|-------3----|
|-7-------2---|-3-2-0------|---------3-----|---2-2----|-2----------|
|---0---3-----|------------|-------2-------|----------|-------3----|
|-------------|------------|----3----------|---3------|----4--5----|
|-5-----------|------------|---------------|-5--------|------------|


|---------||-5-----5---0-|-3-1-6------|
|-(3)-----||-------------|---------5--|
|---------||-5---5-6-----|-3-2---7-5--|
|-(3)-----||---------7---|-----5------|
|-(5)-----||---3---------|------------|
|---------||-5-----------|-----0------|


|-0-----0-----|-----5----|-5-----5---0----|
|-1-----------|-3--------|----------------|
|-------3---3-|---5-5----|-5---5-6--------|
|-----2-------|-----3----|---------7------|
|---3-----3---|---0------|---3------------|
|-0-----------|-5--------|-5--------------|


|-3-1-6------|-0-----------|-------------||-----0-------|-3-1-0---0---|
|---------5--|-1-----3-----|-2-----------||-6-----3---3-|-------3-1---|
|-3-2---7-5--|-------3-----|---2---------||-7-------2---|-3-2-0-------|
|-----5------|-----2-----3-|-2---2-5-3-2-||---0---3-----|-------------|
|------------|---3-----1---|-0-4---------||-------------|-------------|
|-----0------|-0-----------|-------------||-5-----------|-------------|


|-0-(0)---1-0---|-----1-----|-----0------|
|-1-(1)-------3-|-1-------0-|-2-3-2------|
|---------3-----|---2-2-----|------------|
|-------2-------|-----------|---3--------|
|----3----------|---3-------|-----0------|
|---------------|-5---------|------------|



major end (original)

|-----0-------|-3-1-0---6--|-5-----3-0-3-|--------*|----
|-6-----3---3-|-------3-5--|-6-----------|-6------*|----
|-7-------2---|-3-2-0------|-------3-----|-5------*|----
|---0---3-----|------------|-----3-------|-7------*|----
|-------------|---------3--|---3---------|--------*|----
|-5-----------|------------|-5-----0-----|-5------*|----


Minor End
                                rit...

|-----0-------|-3-1-0---0--|-0-(0)---1-0---|-----1----|-1--0-------*|
|-6-----3---3-|-------3-1--|-1-(1)-------3-|-1------3-|-------3----*|
|-7-------2---|-3-2-0------|---------3-----|---2-2----|-2----------*|
|---0---3-----|------------|-------2-------|----------|-------3----*|
|-------------|------------|----3----------|---3------|----4-------*|
|-5-----------|------------|---------------|-5--------|-------2----*|
Login or Register to remove this ad.

6 comments on "Unknown" Orgel Song

I don't know this tune, Any1

I don't know this tune, Any1 has a link to a audio/video ? (youtube or anything)

sample

do you still have the

do you still have the powertab file to export a midi for this and your Tamayura tab?

If so, post them on the original thread http://www.gametabs.net/forum/topic/22089

-Standard TuningGP6 files

-Standard Tuning
GP6 files with replay
GP6&midi
mp3 sample

Good timing. I was literally

Good timing. I was literally just about to make my own midi for this since I have been putting it off since you submitted.

Added those files to the links at top.

nice

5

never thought i'd see a guitar tab of this song! nice work