Ads

Theme of Sill -orgole- (Sengoku Rance) Guitar Tab

Submitted: Jul 16, 2012 by Hakoria (Last updated: Mar 20, 2015)

5
Average: 5 (2 votes)
Download | Listen
Game: Sengoku Rance
Composer(s): Shade
Style: Fingerstyle, Tapped harmonics, Transcription
Series: Rance

AutoScroll: Slow | Medium | Fast
                            Theme of Sill -orgole-                              
                                Sengoku Rance
                                  Alicesoft


                                                              Tabbed by: Hakoria

Sengoku Rance aka Rance VII
As an added note: T.H means right hand harmonics. 
The tempo is approximatively correct, although it could 
be at 128bpm or something else (thus slightly slower
than the current GP5's tempo).
The biggest difficulty would be the 6th measure's 4th beat
left hand split for people with smaller hands, but it's doable.

Props to Alicesoft for making a great ost to a great 
game series. It's a strategy/TBS/VN/eroge btw.
This is a transcription by ear, enjoy.


     Q    Q    Q    Q       Q    Q    Q    Q       Q    Q    Q    Q     
E||--1----L--------------|--0----L--------------|----------------------|
B||-----------------1----|-----------------1----|--3----L---------3----|
G||------------0---------|------------0---------|------------0---------|
D||----------------------|----------------------|----------------------|
A||--3----3--------------|-------3--------------|-------3--------------|
E||----------------------|----------------------|----------------------|


  Q    Q    Q    Q       Q    Q    Q    Q       Q    Q    Q    Q     
----------------------|--0----L--------------|------------0----5----|
--1----L--------------|------------1----L----|--3----L--------------|
------------0---------|------------2---------|------------0---------|
----------------------|-------2---------2----|-------2--------------|
-------3---------2----|--0-------------------|----------------------|
----------------------|----------------------|--3--------------1----|


  Q    Q    Q    Q       Q    Q    H           Q    Q    Q    Q     
--L----3----1----0----|--L----8-------------|--1----L--------------|
----------------------|---------------------|-----------------1----|
----------------------|------------5--------|------------0---------|
----------------------|---------------------|----------------------|
-------3----2----3----|--L------------------|--3----3--------------|
--L-------------------|---------------------|----------------------|


  Q    Q    Q    Q       Q    Q    Q    Q       Q    Q    Q    Q     
--0----L--------------|------------0---------|----------------------|
-----------------1----|--3----L---------3----|--1----L--------------|
------------0---------|------------0---------|------------0---------|
----------------------|----------------------|----------------------|
-------3--------------|-------3--------------|-------3---------2----|
----------------------|----------------------|----------------------|


  Q    Q    Q    Q       Q    Q    Q    Q       Q    Q    Q    Q     
--0----L--------------|----------------------|----------------------|
------------1---------|--3----L----0----1----|--L----3----L----1----|
------------2---------|------------0---------|----------------------|
-------2---------2----|-------2--------------|----------------------|
--0-------------------|----------------------|-------3----2----3----|
----------------------|--3--------------1----|--L-------------------|


  Q    Q    H           Q    Q    Q    Q       H        H         
-------8-------------|--3----L----1----0----|--------------------|
--L------------------|----------------------|--3-----------------|
------------5--------|----------------------|-----------2--------|
---------------------|-----------------2----|--3-----------------|
--L------------------|-------0----3---------|-----------3--------|
---------------------|--1-------------------|--------------------|


  Q    Q    Q    Q       H        H           Q    Q    Q    Q     
----------------------|--------------------|--1----L----0----L----|
----------------------|--------------------|----------------------|
----------------------|--------------------|----------------------|
--3--------------2----|--3-----------------|-----------------2----|
-------0----3---------|-----------3--------|-------0----3---------|
--1-------------------|--------------------|--1-------------------|


  H        H           Q    Q    Q    Q       Q    Q    Q    Q     
--5--------3--------|--1----L--------------|----------------------|
--------------------|----------------------|-------0----1----3----|
-----------0--------|--2-------------------|--2-------------------|
--3-----------------|----------------------|--3-------------------|
--------------------|-------0----2----3----|-------3--------------|
--------------------|----------------------|------------1----L----|


  Q    Q    Q    Q       H        Q    Q       Q    Q    Q    Q     
--0-------------------|-----------1---------|----------------------|
----------------------|----------------3----|----------------------|
----------------------|--0------------------|----------------------|
-------2---------2----|---------------------|-------0---------0----|
------------3---------|-----------3----L----|------------2---------|
--3-------------------|---------------------|--1-------------------|


  Q    Q    H           Q    Q    Q    Q       Q    E  E  Q    Q     
------------5--------|--3----L----1----L----|--0--------------------|
--0---------0--------|----------------------|----------3--L----1----|
---------------------|----------------------|-----------------------|
-------0-------------|------------2---------|-------------3----4----|
---------------------|-------3--------------|-------3--L------------|
---------------------|--0--------------1----|--L--------------------|


                                        TH          
  Q     Q     Q     Q        H          H           
--------------------------|-----------------------||
--0h----1p----0h----1h----|--0--------------------||
--0-----------------------|----------------------*||
--------------0-----L-----|----------------------*||
--------------------------|-----------------------||
--------------------------|--3--------<>3---------||

^TH so right hand harmonic at 15th fret of E string while left hand has 3rd fret held down.


Duration Legend
---------------
W - whole
H - half
Q - quarter
E - 8th


Tablature Legend
----------------
L - tied note
TH - tapped harmonic
h - hammer on
p - pull off
Login or Register to remove this ad.

2 comments on Theme of Sill -orgole-

"Orgole"? I guess that's a

"Orgole"? I guess that's a mistranslation of オルゴール, from orgel "music box".

(I'm not saying you should change it--it'd be wrong if you did, because that's part of the title of the song. It's just interesting.)

Yea, probably a

Yea, probably a mistranslation <: It stuck and that's how English speakers call the piece anyway from what I've seen.