Ads

Nuclear Fusion (Seiken Densetsu 3) Guitar Tab

Submitted: Dec 13, 2009 by auriplane

5
Average: 5 (3 votes)
Download | Listen
Game: Seiken Densetsu 3
Composer(s): Hiroki Kikuta
Style: 2 or more instruments, Alternate picking, Transcription
Series: Mana

AutoScroll: Slow | Medium | Fast
                   Seiken Densetsu 3 - Nuclear Fusion GUITAR TAB
                              Composed by Hiroki Kikuta
                   
                     Tabbed by auriplane ([email protected])


There are seven parts here, along with a bass part (posted separately as a 
bass tab).  They are as follows:

        1ST GUITAR - Melody (Flute)
        2ND GUITAR - Interlude melody (Clarinet)
        3RD GUITAR - Interlude harmony (Clarinet)
        4TH GUITAR - Interlude marimba
        5TH GUITAR - Strings harmony (high voice)
        6TH GUITAR - Strings harmony (middle voice)
        7TH GUITAR - Strings harmony (low voice)
    
I've tried to group them together in a logical way to make the tab easier 
to follow.  All instruments are in standard tuning.  I recommend downloading
the GP5 file, actually.





1ST GUITAR - Melody (Flute)

    This instrument plays in Part A only.


    [Part A]   Repeat twice

    W                       Q     Q     E  E  Q      Q     E  E  H         
e |17----------------------|L-----20----19-17-15----|17-------17-L-----------|
B |------------------------|------------------------|------15----------------|
G |------------------------|------------------------|------------------------|
D |------------------------|------------------------|------------------------|
A |------------------------|------------------------|------------------------|
E |------------------------|------------------------|------------------------|

   Q     E  E  E  E  E  E   Q.       Q.       Q      E  Q.       Q     Q     
e |L-----17-19-20-22-19----|17-------19-------20----|L--19-------17----------|
B |---------------------20-|------------------------|------------------15----|
G |------------------------|------------------------|------------------------|
D |------------------------|------------------------|------------------------|
A |------------------------|------------------------|------------------------|
E |------------------------|------------------------|------------------------|

   E  E  E  E  H            W                        W                 
e |---15-------------------|------------------------|15----------------------|
B |18----18-17-L-----------|L-----------------------|------------------------|
G |------------------------|------------------------|------------------------|
D |------------------------|------------------------|------------------------|
A |------------------------|------------------------|------------------------|
E |------------------------|------------------------|------------------------|

   Q     Q     E  E  Q      W                        Q     E  E  E  E  E  E   
e |L-----18----17-15-------|15----------------------|L-----15-17-18-20-18----|
B |------------------15----|------------------------|---------------------18-|
G |------------------------|------------------------|------------------------|
D |------------------------|------------------------|------------------------|
A |------------------------|------------------------|------------------------|
E |------------------------|------------------------|------------------------|
                                                     
    Q.      Q.       Q      E  Q.       Q     Q      
e |15-------17-------18----|L--17-------15----------|
B |------------------------|------------------17----|
G |------------------------|------------------------|
D |------------------------|------------------------|
A |------------------------|------------------------|
E |------------------------|------------------------|
 
                            First ending                                      
                         
                            E  E  E  E  H           W                         
                         e |---15-------------------|------------------------|
                         B |18----17-15-L-----------|L-----------------------|
                         G |------------------------|------------------------|
                         D |------------------------|------------------------|
                         A |------------------------|------------------------|
                         E |------------------------|------------------------|
                           
                            Second ending
                                                                            
                            E  E  E  E H            W                        
                         e |---15-------------------|------------------------|
                         B |18----17-15-L-----------|L-----------------------|
                         G |------------------------|------------------------|
                         D |------------------------|------------------------|
                         A |------------------------|------------------------|
                         E |------------------------|------------------------| 





2ND GUITAR - Interlude clarinet melody:
3RD GUITAR - Interlude clarinet harmony:

    These two parts are played together during Part C.  
    Make sure to play the last notes really short.


    [Part C]

     E. E. E E. E. E  E. E. E Q.   E  E. E. E E. E. E  E. E. E Q   Q    
  e |11------------11|10-------------|11---------13-11|10--------------|
  B |---11-----------|---10---10---13|---11-----------|---10-8-10------|
  G |------12---12---|------12-------|------12--------|----------------|
  D |--------13------|---------------|--------13------|----------------|
  A |----------------|---------------|----------------|----------------|
  E |----------------|---------------|----------------|----------------|
    |                                                                  |
    |                                                                  |
    |E. E. E E. E. E  E. E. E Q.   E  E. E. E E. E. E  E. E. E Q   Q   |
  e |6-------------6-|5--------------|6----------8--6-|5---------------|
  B |---8------------|---7--5-7----8-|---8------------|---7--5-7-------|
  G |------8----8----|---------------|------8---------|----------------|
  D |--------8-------|---------------|--------8-------|----------------|
  A |----------------|---------------|----------------|----------------|
  E |----------------|---------------|----------------|----------------|





4TH GUITAR - Interlude Marimba

    The marimba part is played during Parts B and C.
    Although I transcribed it, I don't really expect this part to
    be played on guitar (though you could, I guess.  I can't.)


    [Part B]   Repeat twice

   S S S S S S S S S S S S S S S S  S S S S S S S S S S S S S S S S  
e |--------------------------------|--------------------------------|
B |--------6---------------6-------|--------6---------------6-------|
G |------7---7-----------7---7-----|------7---7-----------7---7-----|
D |--5-7-------7---------------7---|--5-7-------7---------------7---|
A |5-------------8-5-------------8-|5-------------8-5-------------8-|
E |--------------------------------|--------------------------------|


   S S S S S S S S S S S S S S S S  S S S S S S S S S S S S S S S S  
e |--------------------------------|--------------------------------|
B |--------5---------------5-------|--------5---------------5-------|
G |------5---5-----------5---5-----|------5---5-----------5---5-----|
D |--3-5-------5-2-------------5-2-|--3-5-------5-2-------------5---|
A |3---------------3---------------|3---------------3-------------5-|
E |--------------------------------|--------------------------------|


   S S S S S S S S S S S S S S S S  S S S S S S S S S S S S S S S S  
e |--------------------------------|--------------------------------|
B |--------3---------------3-------|--------3---------------5-------|
G |------3---3-----------3---3-----|------3---3-----------5---5-----|
D |----3-------3---------------3---|----3-------3-2-0-----------5---|
A |--5-----------5---------------5-|--5---------------------------7-|
E |6---------------6---------------|6-------------------------------|


    First ending

   S S S S S S S S S S S S S S S S  S S S S S S S S S S S S S S S S  
e |--------------------------------|--------------------------------|
B |--------6---------------6-------|--------6---------------5-------|
G |------7---7-----------7---7-----|------7---7-----------5---5-----|
D |--5-7-------7---------------7---|--5-7-------7-3---3-5-------5-2-|
A |5-------------8-5-------------8-|5---------------3---------------|
E |--------------------------------|--------------------------------|


    Second ending

   S S S S S S S S S S S S S S S S  S S S S S S S S S S S S Q        
e |--------------------------------|--------------------------------|
B |--------6---------------6-------|--------6-----------------------|
G |------7---7-----------7---7-----|------7---7---------------------|
D |--5-7-------7---------------7---|--5-7-------7-3-----------------|
A |5-------------8-5-------------8-|5---------------5-5-5-5-5-------|
E |--------------------------------|--------------------------------|


    [Part C]

   E.    E.    E   E.    E.    E    E.    E.    E   E   S S S S E    
e |--------------------------------|--------------------------------|
B |--------------------------------|--------------------------------|
G |------------3---------------3---|--------------------------------|
D |------5-----5---------5-----5---|0-----5-----7---0---0-5-L-5-7---|
A |6-----6---------6-----6---------|0-----5-----7---0---0-5-L-5-7---|
E |6---------------6---------------|--------------------------------|

   E.    E.    E   E.    E.    E    E.    E.    E   H                
e |--------------------------------|--------------------------------|
B |--------------------------------|--------------------------------|
G |------------3---------------3---|--------------------------------|
D |------5-----5---------5-----5---|0-----5-----7---0---------------|
A |6-----6---------6-----6---------|0-----5-----7---0---------------|
E |6---------------6---------------|--------------------------------|





5TH GUITAR - Strings harmony (high voice)
6TH GUITAR - Strings harmony (middle voice)
7TH GUITAR - Strings harmony (low voice)

    These parts play harmony for most of the song.  The low voice only
    plays toward the end (parts C & D).


    [Part A]   Repeat twice

   H       H        H       H        H       H        H       H        
e |5-------8-------|7---------------|5-------7-------|8-------7-------|
B |----------------|--------8-------|----------------|----------------|
G |----------------|----------------|----------------|----------------|
D |----------------|----------------|----------------|----------------|
A |----------------|----------------|----------------|----------------|
E |----------------|----------------|----------------|----------------|
  |                                                                   |
  |H       H        H       H        H       H        H       H       |
e |--------5-------|----------------|----------------|5---------------|
B |6---------------|8-------5-------|6-------8-------|--------8-------|
G |----------------|----------------|----------------|----------------|
D |----------------|----------------|----------------|----------------|
A |----------------|----------------|----------------|----------------|
E |----------------|----------------|----------------|----------------|



   Q   E E E E Q    E E E E Q   Q    E E E E H        H       E E E E   
e |5-----7-L---8---|--7-L---5-------|----------------|----------------|
B |----------------|----------------|6-8-6-5-L-------|L-------5-6-5---|
G |----------------|------------7---|----------------|--------------5-|
D |----------------|----------------|----------------|----------------|
A |----------------|----------------|----------------|----------------|
E |----------------|----------------|----------------|----------------|
  |                                                                   |
  |Q   E E E E Q    E E E E Q   Q    Q.    Q.    Q    E Q.    E E E E |
e |------------5---|----------------|----------------|----------------|
B |6-----8-L-------|--8-L---6-------|----------------|----------------|
G |----------------|----------------|5-----7-----5---|L-7-----5-7-5---|
D |----------------|------------7---|----------------|--------------5-|
A |----------------|----------------|----------------|----------------|
E |----------------|----------------|----------------|----------------|



   H       H        H       H        H       H        H       H        
e |----------------|----------------|----------------|----------------|
B |----------------|----------------|----------------|6-------5-------|
G |--------5-------|7-------5-------|--------5-------|----------------|
D |8---------------|----------------|8---------------|----------------|
A |----------------|----------------|----------------|----------------|
E |----------------|----------------|----------------|----------------|
  |                                                                   |
  |H       H        H       H        H       H        H       H       |
e |----------------|----------------|----------------|----------------|
B |----------------|----------------|----------------|----------------|
G |----------------|----------------|----------------|7-------5-------|
D |5-------7-------|8-------7-------|5-------7-------|----------------|
A |----------------|----------------|----------------|----------------|
E |----------------|----------------|----------------|----------------|


                                     First ending

   Q   E E E E Q    E E E E Q   Q    E E E E H        H       Q   Q    
e |----------------|--6-L---5-------|----------------|----------------|
B |------5-L---6---|------------5---|6-8-5-----------|--------6---8---|
G |7---------------|----------------|------7-L-------|L---------------|
D |----------------|----------------|----------------|----------------|
A |----------------|----------------|----------------|----------------|
E |----------------|----------------|----------------|----------------|
  |                                                                   |
  |Q   E E E E Q    E E E E Q   Q    Q.    Q.    Q    E Q.    Q   Q   |
e |----------------|----------------|----------------|----------------|
B |----------------|--6-L---5-------|----------------|------------5---|
G |------5-L---7---|------------5---|7---------------|--------7-------|
D |8---------------|----------------|------7-----5---|L-7-------------|
A |----------------|----------------|----------------|----------------|
E |----------------|----------------|----------------|----------------|


                                     Second ending

                                     E E E E H        H       Q   Q    
                                  e |----------------|----------------|
                                  B |6-8-5-----------|--------6---5---|
                                  G |------7-L-------|L---------------|
                                  D |----------------|----------------|
                                  A |----------------|----------------|
                                  E |----------------|----------------|
                                    |                                 |
                                    |Q.    Q.    Q    E Q.    Q   Q   |
                                  e |----------------|----------------|
                                  B |----------------|----------------|
                                  G |7---------------|--------7---5---|
                                  D |------7-----5---|L-7-------------|
                                  A |----------------|----------------|
                                  E |----------------|----------------|


    [Part B]   Repeat twice

   E. E. E E E E SS E. E. E E. E. E  H       Q.    E  W                 
e |------5---------|5--6--8-5-----5-|----------------|----------------|
B |6--8----6-----68|-----------6----|8-------L-----8-|13--------------|
G |----------------|----------------|----------------|----------------|
D |----------------|----------------|----------------|----------------|
A |----------------|----------------|----------------|----------------|
E |----------------|----------------|----------------|----------------|
  |                                                                   |
  |E. E. E E E E SS E. E. E E. E. E  H       Q.    E  W               |
e |----------------|------5---------|----------------|----------------|
B |---------------5|6--8----6-----6-|5-------L-----5-|8---------------|
G |--------------7-|-----------7----|----------------|----------------|
D |---5--7---------|----------------|----------------|----------------|
A |8-------8-------|----------------|----------------|----------------|
E |----------------|----------------|----------------|----------------|


                                     First ending

   E. E. E E E E SS E. E. E E. E. E  H       Q.    S S  W                 
e |--------------12|13-15-1718-17-15|13------L-----1312|----------------|
B |11-13-1511---15-|----------------|------------------|13--------------|
G |----------------|----------------|------------------|----------------|
D |----------------|----------------|------------------|----------------|
A |----------------|----------------|------------------|----------------|
E |----------------|----------------|------------------|----------------|
  |                                                                     |
  |E. E. E E E E SS E. E. E E. E. E  H       Q.    S S  Q   Q   E E Q   | 
e |----------------|---12-1315-13-12|------------------|----------------|
B |--------------13|15--------------|15------L-----1513|----------------|
G |---5--7------15-|----------------|------------------|12--14--1210----|
D |8-------8-------|----------------|------------------|------------14--|
A |----------------|----------------|------------------|----------------|
E |----------------|----------------|------------------|----------------|


                                     Second ending
                                  
                                     Q.    Q.    Q    E Q.    Q   Q     
                                  e |13----------15--|L-------13------|
                                  B |------17--------|--17--------15--|
                                  G |----------------|----------------|
                                  D |----------------|----------------|
                                  A |----------------|----------------|
                                  E |----------------|----------------|
                                    |                                 |
                                    |W                H       Q   Q   | 
                                  e |----------------|----------------|
                                  B |15--------------|L-------15------|
                                  G |----------------|------------14--|
                                  D |----------------|----------------|
                                  A |----------------|----------------|
                                  E |----------------|----------------|


    [Part C & D]

                     H       Q.    E  H       Q.    E  Q   Q   Q.    E 
                  e |--------------12|13------L-----13|15--12----------|
                  B |----------------|----------------|--------13----15|
                  G |----------------|----------------|----------------|
                  D |----------------|----------------|----------------|
                  A |----------------|----------------|----------------|
                  E |----------------|----------------|----------------|
                    |                                                  |
                    |W                H       Q.    E  Q   Q   Q.    E |
                  e |----------------|----------------|12--------------|
  (Rest for       B |----------------|15------L-----15|----13----------|
   three          G |----------------|----------------|--------12----14|
   measures)      D |----------------|----------------|----------------|
                  A |----------------|----------------|----------------|
                  E |----------------|----------------|----------------|
                    |                                                  |
                    |H       E. E. E  H       Q.    E  Q   Q   Q.     E|
                  e |-----------10-8-|----------------|8---------------|
                  B |----------------|11------L-----11|----8-----------|
                  G |----------------|----------------|--------9-----11|
                  D |----------------|----------------|----------------|
                  A |----------------|----------------|----------------|
                  E |----------------|----------------|----------------|




   H       Q.    E   Q   Q   Q.   E  W                W                 
e |17------L-----17|19--15-------14-|L---------------|L----------------|
B |----------------|--------17------|----------------|-----------------|
G |----------------|----------------|----------------|-----------------|
D |----------------|----------------|----------------|-----------------|
A |----------------|----------------|----------------|-----------------|
E |----------------|----------------|----------------|-----------------|
  |                                                                    |
  |H       Q.    E  Q   Q    Q.   E  W                W                |
e |14------L-----14|16--12----------|----------------|-----------------|
B |----------------|--------12---14-|14--------------|L----------------|
G |----------------|----------------|----------------|-----------------|
D |----------------|----------------|----------------|-----------------|
A |----------------|----------------|----------------|-----------------|
E |----------------|----------------|----------------|-----------------|
  |                                                                    |
  |H       Q.    E  Q   Q   E. E. E  W                W                | 
e |10------L-----10|12--------------|----------------|-----------------|
B |----------------|----12--------12|11--------------|L----------------|
G |----------------|--------12--9---|----------------|-----------------|
D |----------------|----------------|----------------|-----------------|
A |----------------|----------------|----------------|-----------------|
E |----------------|----------------|----------------|-----------------|

Login or Register to remove this ad.

1 comment on Nuclear Fusion

^^

5

^^