Ads

Special Stage (Sonic the Hedgehog) Guitar Tab

Submitted: Apr 10, 2008 by Strummer

4
Average: 4 (4 votes)
Download | Listen
Game: Sonic the Hedgehog
Composer(s): Masato Nakamura
Style: Transcription
Series: Sonic the Hedgehog

AutoScroll: Slow | Medium | Fast
Special Stage
Tabbed by: Strummer

e------------------------------
B-5----6-8----5-5-------5------
G--------------------5-------5-
D------------------------------
A------------------------------
E------------------------------

e------------------------------
B-5----6-8----6----------------
G---------------5----4-7--5----
D------------------------------
A------------------------------
E------------------------------

e------------------------------
B-5----6-8----5-5-------5------
G--------------------5-------5-
D------------------------------
A------------------------------
E------------------------------

e------------------------------
B-5----6-8----6----------------
G---------------5----4-7--5----
D------------------------------
A------------------------------
E------------------------------

e-----------------------
B---5-6-5-6-8----5------
G-7----------------5----
D-----------------------
A-----------------------
E-----------------------

e----------------9------
B---5-6-5-6-8------8----
G-7---------------------
D-----------------------
A-----------------------
E-----------------------
Login or Register to remove this ad.

3 comments on Special Stage

Perfect, =D.

5

Perfect, =D.

L=

What he/she said

It's close, but the 9 on high

It's close, but the 9 on high e doesn't fit at the end, I use a 8 there.