Ads

Angel's Fear (Secret of Mana) Guitar Tab

Submitted: Jul 06, 2009 by Kuzune (Last updated: Feb 04, 2010)

4.666665
Average: 4.7 (3 votes)
Download | Listen
Game: Secret of Mana
Composer(s): Hiroki Kikuta
Style: Arrangement, Fingerstyle
Series: Mana

AutoScroll: Slow | Medium | Fast
-----|Secret of Mana: Angel's Fear|-----


-Game: Secret of Mana (SNES)
-Song: Angel's Fear (Arranged)
-Composer: Hiroki Kikuta
-Year: 1993
-Tabber: Kuzune
-Tab Date: 3/07/2009


-Number of Guitars: 1
-Tuning: Acoustic Guitar 1 (E B G D A E)


-Tempo: Q = 60

    E   E   E   E   E   E   E   E      E   E   E   E   E   E   E   E
E||-0---------------3---------------||-------------0-------2---0-------||
B||-1-------------------0-------1---||-3-------3-------------------1---||
G||-2-------2---------------2-------||-2---------------2---------------||
D||-2---2-----------2-----------2---||-0-------0-----------------------||
A||-0-------0---2---0---------------||-----0-----------0---------------||
E||---------------------------------||-------------2-------------------||



    E   E   E   E   E   E   E   E      E   E   E   E   E   E   E   E
E||-0---------------3---------------||---------------------------------||
B||-1-------------------0-------1---||-3---5---3---1---3-----------5---||
G||-2-------2---------------2-------||-3-------3-------3---------------||
D||-2---2-----------2-----------2---||-3-------------------2-----------||
A||-0-------0---2---0---------------||-1---------------1-------5---7---||
E||---------------------------------||-----------------------------6---||



    E   E   E   E   E   E   E   E      E   E   E   E   E   E   E   E
E||-----------------5---------------||---------------------------------||
B||-6-------1-------------------6---||-8-------------------------------||
G||-7-------0-----------5-----------||-9---9---7---9---5-----------5---||
D||-----0-----------3-------7-------||-10----------------------5---3---||
A||-5-----------0---1-----------3---||-8-------------------5-----------||
E||-3-------------------------------||-----8-----------3---------------||



    E   E   E   E   E   E   E   E      E   E   E   E   E   E   E   E
E||---------------------------------||-----------------0---8---7-------||
B||-4---1-------1-------------------||-------------1---------------8---||
G||-5-------3-------0---------------||-0-------0-------5---------------||
D||-----1-----------1-----------3---||-----1---------------------------||
A||-3-----------1-------1-------1---||-3-------------------------------||
E||-4-------4---------------4-------||---------------------------------||


-Key:

h - Hammer-on
p - Pull-off
t - Tapped note
L - Tied note
/ or \ - Slide up / and down \

-Duration Legend:

W - Whole
H - Half
Q - Quarter
E - 8th
S - 16th
T - 32nd
X - 64th
. - Dotted note
|-n-| - N-tuplet
Login or Register to remove this ad.