Ads

A Wish (Secret of Mana) Guitar Tab

Submitted: Jan 02, 2009 by auriplane (Last updated: Dec 30, 2009)

4.714285
Average: 4.7 (7 votes)
Download | Listen
Game: Secret of Mana
Composer(s): Hiroki Kikuta
Style: Arrangement, Fingerstyle
Series: Mana

This song is also called Frosty Forest

AutoScroll: Slow | Medium | Fast
                     Secret of Mana - A Wish GUITAR TAB
                            Song by Hiroki Kikuta

              Arranged & tabbed by auriplane ([email protected])
                                  On 1/2/2009

This is the "Ice Country" song.  I made a MIDI so you can hear what the
arrangement is supposed to sound like.

This song is in 3/4 time, and drop-D tuning.  

   E  E  H            E  E  H            E  E  H            E  E  H
e |------3-----------|------0-----------|------3-----------|------0-----------|
B |------1-----------|------1-----------|------1-----------|------1-----------|
G |------0-----------|------0-----------|------0-----------|------0-----------|
D |---2--------------|------3-----------|---2--------------|------3-----------|
A |0-----------------|---3--------------|0-----------------|---3--------------|
D |------------------|3-----------------|------------------|3-----------------|

   E  E  E  E  E  E   E  E  E  E  Q      E  E  E  E  E  E   E  E  E  E  E  E
e |------3-----------|------0-----------|------3-----------|------0-----------|
B |------0-----0-----|------1--0--------|------0-----0-----|------1--3--1--0--|
G |------0--5-----0--|------2-----2-----|------0--5-----0--|------2-----------|
D |---0--------------|------2-----------|---0--------------|------2-----------|
A |------------------|---3--------------|------------------|---3--------------|
D |5-----------------|3-----------------|5-----------------|3-----------------|

   E  E (H)           E  E (H)           E  E  Q     Q      E  E  Q     Q   
e |0-----------------|------------------|------5-----------|------3-----------|
B |1--3--L-----------|1--3--L-----------|------------------|------0-----------|
G |2--4--L-----------|2--4--L-----------|------5-----------|------0-----------|
D |---5--L-----------|3--5--L-----------|------7-----------|---0--------0-----|
A |------------------|------------------|---7--------7-----|------------------|
D |------------------|------------------|3-----------------|2-----------------|

   E  E  E  E  E  E   E  E  E  E  Q      E  E  E  E  Q      E  E  Q     Q   
e |------5--7--5-----|3--------1--0-----|------------------|------------------|
B |------------------|------0-----------|3-----------------|1--0--------------|
G |------5-----------|------0-----------|---------5--4-----|------2-----5-----|
D |------7-----------|---0--------0-----|------3-----------|------------------|
A |---7-----------7--|------------------|---3--------------|0-----------------|
D |3-----------------|2-----------------|0-----------------|------------5-----|

   E  E  E  E  E  E   E  E  E  E  E  E   E  E  E  E  E  E   E  E  E  E  E  E
e |---------1-----1--|5-----------------|------------------|5-----------------|
B |3-----3-----1-----|3--6--3--6--------|3--------6-----6--|3--6--3-----------|
G |------3-----------|3-----------5-----|------5-----5-----|3--------3--------|
D |---3--------------|3--------------5--|---5--------------|3-----------3-----|
A |1-----------------|3-----------------|3-----------------|3--------------3--|
D |------------------|------------------|------------------|------------------|


Alternate version, measures 11-14 are easier and more delicate sounding:


   E  E  H            E  E  H            E  E  H            E  E  H
e |------3-----------|------0-----------|------3-----------|------0-----------|
B |------1-----------|------1-----------|------1-----------|------1-----------|
G |------0-----------|------0-----------|------0-----------|------0-----------|
D |---2--------------|------3-----------|---2--------------|------3-----------|
A |0-----------------|---3--------------|0-----------------|---3--------------|
D |------------------|3-----------------|------------------|3-----------------|

   E  E  E  E  E  E   E  E  E  E  Q      E  E  E  E  E  E   E  E  E  E  E  E
e |------3-----------|------0-----------|------3-----------|------0-----------|
B |------0-----0-----|------1--0--------|------0-----0-----|------1--3--1--0--|
G |------0--5-----0--|------2-----2-----|------0--5-----0--|------2-----------|
D |---0--------------|------2-----------|---0--------------|------2-----------|
A |------------------|---3--------------|------------------|---3--------------|
D |5-----------------|3-----------------|5-----------------|3-----------------|

   E  E (H)           E  E (H)           E  E  Q     Q      E  E  Q     Q   
e |0-----------------|------------------|------5-----------|------3-----------|
B |1--3--L-----------|1--3--L-----------|------5-----------|------0-----------|
G |2--4--L-----------|2--4--L-----------|---5--------5-----|---0--------0-----|
D |---5--L-----------|3--5--L-----------|3-----------------|2-----------------|
A |------------------|------------------|------------------|------------------|
D |------------------|------------------|------------------|------------------|

   E  E  E  E  E  E   E  E  E  E  Q      E  E  E  E  Q      E  E  Q     Q   
e |------5--7--5-----|3--------1--0-----|------------------|------------------|
B |------5--------5--|------0-----------|3-----------------|1--0--------------|
G |---5--------------|---0--------0-----|---------5--4-----|------2-----5-----|
D |3-----------------|2-----------------|------3-----------|------------------|
A |------------------|------------------|---3--------------|0-----------------|
D |------------------|------------------|0-----------------|------------5-----|

   E  E  E  E  E  E   E  E  E  E  E  E   E  E  E  E  E  E   E  E  E  E  E  E
e |---------1-----1--|5-----------------|------------------|5-----------------|
B |3-----3-----1-----|3--6--3--6--------|3--------6-----6--|3--6--3-----------|
G |------3-----------|3-----------5-----|------5-----5-----|3--------3--------|
D |---3--------------|3--------------5--|---5--------------|3-----------3-----|
A |1-----------------|3-----------------|3-----------------|3--------------3--|
D |------------------|------------------|------------------|------------------|

Login or Register to remove this ad.

3 comments on A Wish

Awesome tab.

5

I was just listening through the Secret of Mana soundtrack the other day, considering which tracks I might be able to work out for guitar. This was one I wanted to try. Thanks for saving me some time :-p Great work.

Thanks!! After I made it I

Thanks!! After I made it I found out there was another arrangement for it on this site (I was looking under "Wish", which is what I first uploaded it as, so I didn't see it before I made mine). Make sure you check that one out too! ^-^

Small change I would make.

In the second to last measure I would change the e1,B1,e1 to B6,G5,B6 to keep the lower string ringing.