Ads

Rose and Ghost (Secret of Mana) Guitar Tab

Submitted: Nov 11, 2010 by BacardiBreezer (Last updated: Nov 11, 2010)

0
Download | Listen
Game: Secret of Mana
Composer(s): Hiroki Kikuta
Style: Alternate picking, Transcription
Series: Mana

AutoScroll: Slow | Medium | Fast
"Rose and Ghost"
Secret of Mana
Composer: Hiroki Kikuta
Tabbed by: BacardiBreezer
11/9/10

e|--10--12--15----17----------------------------------15----17-------------------------------12---|
B|-------------------17-----15--17--17--------15--17-----------17-------13--15-15-----13--15------|
G|----------------------17------------------------------------------14----------------------------|
D|------------------------------------------------------------------------------------------------|
A|------------------------------------------------------------------------------------------------|
E|------------------------------------------------------------------------------------------------| x2

e|--10--8--10--12--13----12--10----8-12----------------------|
B|---------------------------------------12--10--12----------|
G|---------------------------------------------------9-------|
D|-----------------------------------------------------------|
A|-----------------------------------------------------------|
E|-----------------------------------------------------------|

e|--10--8--10--12--13----12--10----8-12---15---17------------|
B|-----------------------------------------------------------|
G|-----------------------------------------------------------|
D|-----------------------------------------------------------|
A|-----------------------------------------------------------|
E|-----------------------------------------------------------|

e|--13--12----------12-10------------------------------------|
B|----------13---13--------12-13-12--------10----------------|
G|-------------------------------------12--------------------|
D|-----------------------------------------------------------|
A|-----------------------------------------------------------|
E|-----------------------------------------------------------|
Login or Register to remove this ad.