Ads

The Oracle (Secret of Mana) Guitar Tab

Submitted: Dec 03, 2010 by BacardiBreezer

4
Average: 4 (1 vote)
Download | Listen
Game: Secret of Mana
Composer(s): Hiroki Kikuta
Style: Alternate picking, Transcription
Series: Mana

AutoScroll: Slow | Medium | Fast
The Oracle
Secret of Mana
Composer: Hiroki Kikuta
Tabbed by: Bacardibreezer
12/1/10

e|--------------------------------------------------------|
B|--------------------------------------------------------|
G|--------------------------------------------------------|
D|--------------------------------------------------------|
A|--10-10--7-7--10-10--11-11-----10-10--7-7---------7-7---|
E|-------------------------------------------11-11--------| x4

(^You could make these into power chords, too...)

e|--------------------------------------------------------|
B|--------------------------------------------------------|
G|------1----1----1----1----1----1----1----1----1---------|
D|--------------------------------------------------------|
A|--------------------------------------------------------|
E|--------------------------------------------------------|

(^That is the strings in the background. Alternatively, you can rest.)

e|--------------------------------------------------------|
B|--------------------------------------------------------|
G|--------------------------------------------------------|
D|--------------------------------------------------------|
A|--10-10--7-7--10-10--11-11-----10-10--7-7---------7-7---|
E|-------------------------------------------11-11--------| x4

e|--14-14-14-14-15-14-14-13-----14-14-15-14-15-15-12-13---|
B|--------------------------------------------------------|
G|--------------------------------------------------------|
D|--------------------------------------------------------|
A|--------------------------------------------------------|
E|--------------------------------------------------------|x4

e|--19-19-19-19-20-19-19-18-----19-19-20-19-20-20-17-18---|
B|--------------------------------------------------------|
G|--------------------------------------------------------|
D|--------------------------------------------------------|
A|--------------------------------------------------------|
E|--------------------------------------------------------|x4

e|--------------------------------------------------------|
B|--------------------------------------------------------|
G|--------------------------------------------------------|
D|---2~----2~----2~----2~----2~----2~----2~----2~----2~---|
A|--------------------------------------------------------|
E|--------------------------------------------------------|

(^That is the strings in the background. Alternatively, you can rest.)

e|---7~-------|
B|------------|
G|------------|
D|------------|
A|------------|
E|------------|

(^The weird screaming noise at the end, I think.)
Login or Register to remove this ad.