Ads

Ceremony (Secret of Mana) Guitar Tab

Submitted: Feb 03, 2011 by BacardiBreezer

0
Download | Listen
Game: Secret of Mana
Composer(s): Hiroki Kikuta
Style: 2 or more instruments, Transcription
Series: Mana

AutoScroll: Slow | Medium | Fast
Ceremony
Secret of Mana
Composer: Hiroki Kikuta
Tabbed by: Bacardibreezer
2/3/11

Guitar 1 - goes til the end of the song

e|----------------------------------------------------------------------|
B|-----------------14-10----14-----------------14----15-14--------------|
G|--12-11-----12---------12------12-11----12------14--------------------|
D|--------12---------------------------12-------------------------------|
A|----------------------------------------------------------------------|
E|----------------------------------------------------------------------| x4

Guitar 2 - stops at :25

e|----------9-----9-----------------------------9-----9----9------------|
B|--7--8-10---8-7---10-8----------------7--8-10---8-7---10---10-8-------|
G|----------------------------------------------------------------------|
D|----------------------------------------------------------------------|
A|----------------------------------------------------------------------|
E|----------------------------------------------------------------------| x8

Guitar 3 (Flute) stops at :25

e|------------------10--9----------------------------9------------------|
B|--8------7--8------------10--8----7--8------7---8-----10--8-----------|
G|-----7----------------------------------7-----------------------------|
D|----------------------------------------------------------------------|
A|----------------------------------------------------------------------|
E|----------------------------------------------------------------------| x4
Login or Register to remove this ad.