Ads

Yuugao (School Rumble) Guitar Tab

Submitted: Apr 11, 2012 by WaffleDino

5
Average: 5 (2 votes)
Download | Listen
Game: School Rumble
Composer(s): Toshiyuki Omori
Style: Arrangement, Fingerstyle

This song is also called Yakumo's Theme

AutoScroll: Slow | Medium | Fast
Title: Yuugao
SubTitle: Yakumo's Theme
Artist: School Rumble
Words: [email protected] Gametabs.net
Tempo = 82
Steel Guitar

Legend
L - tied note
x - dead note
h - hammer on/pull off
b - bend
s - slide
~ - vibrato
g - ghost note
> - accentuated note
t - trill
M - palm mute
. - staccato
P - popping (bass)
S - slapping (bass)
+ - tapping
W - wide vibrato
< - fade in
w - whammy bar
= - tremolo picking
v - brush up
^ - brush down
V - pick stroke up
n - pick stroke down

                                
E |----------------------------|
B |--1--------1--0--------0----|
G |--------2-----------0-------|
D |-----2-----------2----------|
A |--0-------------------------|
E |--------------3-------------|

                                                     
----------------------------------------------------|
-----------------------------------------------0----|
--2-----------------2L----2-----------------2-------|
--------0-----2-------------------------------------|
----------------------------------------------------|
--2-------------------------------------------------|

                                                          
----------------------------|--------------------0--3----|
--1--------1--0--------0----|----------------------------|
--------2-----------0-------|--2--------2L-2-------------|
-----2-----------2----------|-----0--2-------------------|
--0-------------------------|----------------------------|
--------------3-------------|--2-------------------------|

                                                          
--8-----7-----5-------------|--5-----3-------------------|
----------------------------|-----------0--5-------------|
-----------5----------------|----------------------------|
-----7----------------------|-----5----------------------|
--8-------------------------|--7-------------------------|
----------------------------|----------------------------|

                                                          
-----------0----------------|----------------------------|
--3-----------3--1-----1----|--1-----------1-------------|
--------------------2-------|-----0-----0-----0-----0----|
--3--0--3-------------------|--------3-----------3-------|
----------------------------|--3-------------------------|
--------------3-------------|----------------------------|

                             
----------------------------|
--1--------------------1----|
--0-----------------2-------|
--2-------------------------|
--3-------------------------|
----------------------------|

                                                     
--------------------0-----------0-------------------|
--3-----------3-----------3--------3--1-----3-------|
--------2-----------------0-------------------------|
--3-------------------------------------------------|
----------------------------------------------------|
----------------------------------------------------|

                                                          
--0--3--3--5--0-----0--3----|----------------------------|
--------0--------------1----|--3-----3--1--3--1--1--3----|
-----0--------2-----0-------|-----2--------0-------------|
--2--------------2----------|--3-------------------------|
----------------------------|----------------------------|
----------------------------|----------------------------|

                             
--0-------------------------|
--------1--------------1----|
-----0-----0-----0--2-------|
--------------2-------------|
--3-------------------------|
----------------------------|

                                                     
--------------------0-------------------------------|
--3--------3--3-----------3-----------1-----3-------|
--------2-----------------0-------------------------|
--3-------------------------------------------------|
----------------------------------------------------|
----------------------------------------------------|

                             
--0--3--3--5--0-----3--0----|
--------0--------------1----|
-----0--------2-----0-------|
--2--------------2----------|
----------------------------|
----------------------------|

                                                     
--------------------0-------------------------------|
--3--------1--3-----------3-----------------1-------|
--------2-----------------0-----2-----2-------------|
--3-------------------------------------------------|
----------------------------------------------------|
----------------------------------------------------|

                             
--------------0-------------|
--1--------1-----------1----|
--------0-----------2-------|
-----2----------------------|
--3-------------------------|
----------------------------|

                                                     
--------------------0-------------------------------|
--3--------1--3-----------3-----------1-----3-------|
--------2-----------------0-------------------------|
--3-------------------------------------------------|
----------------------------------------------------|
----------------------------------------------------|

                                                          
--0--3--3--5--0-----0--3----|-----------------------3----|
--------0--------------1----|--3-----3--1--3--1--1-------|
-----0--------2-----0-------|-----2--------0-------------|
--2--------------2----------|--3-------------------------|
----------------------------|----------------------------|
----------------------------|----------------------------|

                             
--0-------------------------|
--------1--------------1----|
-----0-----0-----0--2-------|
--------------2-------------|
--3-------------------------|
----------------------------|

                                                     
--------------------0-------------------------------|
--3--------1--3-----------3-----------1-----3-------|
--------2-----------------0-------------------------|
--3-------------------------------------------------|
----------------------------------------------------|
----------------------------------------------------|

                                                          
--0--3--3--5--0-----3--0----|--------3--0----------------|
--------0--------------1----|--3-----------3--------1----|
-----0--------2-----0-------|-----2--------0--2--2-------|
--2--------------2----------|--3-------------------------|
----------------------------|----------------------------|
----------------------------|----------------------------|

                                                          
--------------0-----0--3----|--5--------------5--5-------|
--1--------1----------------|--------------5--------5----|
--------0--------2----------|-----------5----------------|
-----2----------------------|--------7-------------------|
--3-------------------------|-----7----------------------|
----------------------------|--5-------------------------|

                                                          
--3-----------0--------0----|--3-----1--0----------------|
-----------0--------0-------|--------------3-----1--3----|
--------0--------0----------|-----2--------0-------------|
-----2----------------------|--3-------------------------|
----------------------------|----------------------------|
--0-------------------------|----------------------------|

                                                          
--1--0--0-----------0--3----|--5--------------5--5--5----|
-----------3--1-------------|--------------5-------------|
--------------0-------------|-----------5----------------|
-----------------2----------|--------7-------------------|
--3-------------------------|-----7----------------------|
----------------------------|--5-----------------5-------|

                                                          
--7--------3-----------3----|--5--------------5-----5----|
-----5--------------0-------|----------------------------|
--------0--------0----------|--------5--5--5-------------|
--------------2-------------|--3-----------4-------------|
----------------------------|----------------------------|
--0-------------------------|----------------------------|

                               ^                          
--3-------------------------|--3-------------------------|
----------------------------|--3--------------------1----|
----------------------------|--0-----------------2-------|
--------0--3--0-------------|----------------------------|
-----3-----------3--0--3----|----------------------------|
--3-------------------------|--3-------------------------|

                                                     
--------------------0-------------------------------|
--3--------1--3-----------3-----------1-----3-------|
--------2-----------------0-------------------------|
--3-------------------------------------------------|
----------------------------------------------------|
----------------------------------------------------|

                                                          
--0--3--3--5--0-----0--3----|-----------------------3----|
--------0--------------1----|--3-----3--1--3--1--1-------|
-----0--------2-----0-------|-----2--------0-------------|
--2--------------2----------|--3-------------------------|
----------------------------|----------------------------|
----------------------------|----------------------------|

                             
--0-------------------------|
--------1--------------1----|
-----0-----0-----0--2-------|
--------------2-------------|
--3-------------------------|
----------------------------|

                                                     
--------------------0-------------------------------|
--3--------1--3-----------3-----------1-----3-------|
--------2-----------------0-------------------------|
--3-------------------------------------------------|
----------------------------------------------------|
----------------------------------------------------|

                                                          
--0--3--3--5--0-----3--0----|--------3--0----------------|
--------0--------------1----|--3-----------3--------1----|
-----0--------2-----0-------|-----2--------0--2--2-------|
--2--------------2----------|--3-------------------------|
----------------------------|----------------------------|
----------------------------|----------------------------|

                               ^
--------------0-------------|--0----||
--1--------1-----1----------|--1----||
--------0-----------0-------|-------||
-----2-----------------2----|-------||
--3-------------------------|--3----||
----------------------------|-------||
Login or Register to remove this ad.

1 comment on Yuugao

Super props for this. Im glad

Super props for this. Im glad someone else appreciates this song.