Ads

Rome Was Not Bulit in a Day (School Rumble) Guitar Tab

Submitted: Jul 12, 2017 by Ttegdap

5
Average: 5 (2 votes)
Download | Listen
Game: School Rumble
Composer(s): Toshiyuki Omori
Style: Arrangement, Fingerstyle

AutoScroll: Slow | Medium | Fast
                                Rome Was Not Bulit in a Day

Capo 3

     H        E  E  E  E     E  E  E  Q    E  E  E   
E||-----------------3--2--|--3-------------0--5--3--|
B||--------------0--------|-----------0-------------|
G||-----------------------|-----0--2----------------|
D||-----------------------|-------------------------|
A||-----------------------|--3----------------------|
E||-----------------------|-------------------------|


  E  E  E.  T X X E  E  E  E     E  E  E   Q    E  E  E   
--3-----------2-3-2--0-----0--|-----------10----8--7--5--|
--------3---------------3-----|--7-----------------------|
-----2---------------2--------|--------7-----------------|
--0---------------------------|-----7--------------------|
------------------3-----------|--------------------------|
------------------------------|--7-----------------------|


  E  E  E  E  E  E  E  E     E  E  E  Q    Q    E   
-----7--5--4--------5--7--|--8-------------0----3--|
-----0-----------0--------|------------------------|
--------------------------|-----------5------------|
--------------0-----------|--------7---------------|
--7-----------------------|-----7------------------|
--------------------------|--5---------------------|


  E  E  E  E  E  E  E.  T X X    E  E  E  S S E  E  E  E     W                 
--2-----------2-----5-----5-7-|--5--------3-2-0-----------|--0----------------|
-----------4-----4------------|------------------------0--|--0----------------|
--------4---------------------|---------------0-----0-----|--0----------------|
-----4------------------------|--------2--4------4--------|--2----------------|
--2---------------------------|-----2---------------------|--2----------------|
------------------------------|--0------------------------|--0----------------|


  E  E  E  E  E  E  E.  T X X    E  E  E  E  E  E  E  E   
--------------0---------------|--------------------------|
--1--------1-----3--1-----1-3-|--1--------------0-----1--|
--------0---------------------|-----------2--------2-----|
-----2-----2------------------|--------4-----------------|
--3---------------------------|--0--3--------3-----------|
------------------------------|--------------------------|


  E  E  E  E  E  E  E.  T X X    E  E  E  E  E  Q    E   
--------------2--0----------0-|--2----------------------|
--0--------0--------3-----3---|-----------------3----0--|
--------0---------------------|-----------0-------------|
-----0------------------------|--------4----------------|
------------------------------|-----2-------------------|
--3---------------------------|--0-----------0----------|


  E  E  E  E  E  E  E  E     E  E  E  E  E  E  E  E   
--------------0-----------|--------------------------|
--1--------------3--1--0--|--1--------------0--------|
--------2-----------------|-----------2--------2--0--|
-----2-----2--------------|--------2-----------------|
--0-----------------------|-----3--------------------|
--------------------------|--2-----------2-----------|


                             ^                                               
  E  E  E  E  E  E  E  E     H        E  E  E  E     E  E  E  Q    E  E  E   
--------------------2--7--|--7--------------3--2--|--3----------------5--3--|
--0-----------0--4--------|--7-----------0--------|-----------0----0--------|
--------------------------|--8--------------------|-----0--2----------------|
-----------4--------------|--9--------------------|-------------------------|
--2-----6-----------------|-----------------------|--3----------------------|
-----2--------------------|-----------------------|-------------------------|


  E  E  E.  T X X E  E  E  E     E  E  E   Q    E  E  E   
--3-----------2-3-2--0-----0--|-----------10----8--7--5--|
--------3---------------3-----|--7-----------------------|
-----2---------------2--------|--------7-----------------|
--0---------------------------|-----7--------------------|
------------------3-----------|--------------------------|
------------------------------|--7-----------------------|


                                                                |----3----|     
  E  E  E  E  E  E  E  E     E  E  E   Q    Q    E     H        Q    Q    Q     
-----7--5--4--------5--7--|--8--------------0----3--|--2--------5----3----2----|
-----0-----------0--------|-------------------------|--3--------4--------------|
--------------------------|-------------------------|--------------------------|
--------------0-----------|--------7--10------------|--------------------------|
--7-----------------------|-----7-------------------|--2--------2--------------|
--------------------------|--8----------------------|--------------------------|


                             ^                  
  E  E  E  E  E  E  E  E     W                  
--0-----------------------|--0----------------||
-----------------------0--|--0----------------||
--------------0-----0-----|--0----------------||
--------2--4-----4--------|--2----------------||
-----2--------------------|--2----------------||
--0-----------------------|--0----------------||
Login or Register to remove this ad.