Main Theme (Sayonara Zetsubou Sensei) Guitar Tab

Submitted: Dec 26, 2011 by JordanVS

0
Download | Listen
Game: Sayonara Zetsubou Sensei
Composer(s): Tomoki Hasegawa
Style: Arrangement, Fingerstyle

AutoScroll: Slow | Medium | Fast
Main Theme                    
Zan Sayonara Zetsubou Sensei
Original Piano Transcription By alphamai1300



I made two versions of this song because both seemed cool to me.
The main difference between them is that in the first version the lead part is an octave lower 
and in the second version most of the lead is in a higher octave. 

Please notice that both versions are in Drop D tuning.


Version 1

      E  E  E  E  E  E  E  E     E  E  E  E  E  E  E  E   
E||---8-----7-----5-----3-----|--2-----------------------|
B||------------------4-----4--|-----0--1-----0-----------|
G||*-----8-----8--------------|-----------2-----0--2-----|
D||*--------------------------|-----------------------4--|
A||---------------2-----------|--2-----------2-----------|
D||---9-----------------------|--------------------------|


  E  E  E  E  E  E  E  E     E  E  E  E  H           E  E  E  E  Q.     E   
--------------------------|-----------------------|------------------------|
--1-----0-----------------|-----------------------|--0---------------------|
--------------2-----0-----|-----------------------|--0--2--2--0------------|
-----1-----1-----1-----1--|--4--------------------|--2-----2--L--4------2--|
--2-----------2-----------|-----2--3--0--2--------|-----2------------------|
--------------------------|-----------------------|--2---------------------|


  E  E  E  E  H           E  E  E  E  Q.     E     E  E  E  E  H         
-----------------------|------------------------|-----------------------|
-----------------------|------------------------|--------------0--------|
--2-----------2--------|--2--0--0-----2---------|--------0--2-----------|
--2-----L--2-----------|--2-----0--L--4------0--|-----0-----------------|
--3-----3--------------|--3--0--3---------------|--2--------------------|
-----5-----------------|--0---------------------|--5--------------------|


  E  E  E  E  Q.     E     E  E  E  E  H           E  E  E  E  E  E  E  E   
------------------------|-----------------------|--------------------------|
-----------0--1---------|-----------------------|--------------------------|
--------2---------------|--2-----------0--------|--0--------0--2-----------|
--0--2-----0--2------4--|--2-----2--4-----------|--2--2--4--------4--4--2--|
--0--3--0---------------|--2--2--L--------------|--4--L--L--L--L-----------|
--2-----2---------------|--2--------------------|--------------------------|


  E  E  E  E  H           E  E  E  E  Q.     E     E  E  E  E  H         
-----------------------|------------------------|-----------------------|
--------------0--------|--0---------------------|-----------------------|
-----------2-----------|--0--2--2--0------------|--2-----------2--------|
--4--1--4--------------|--2-----2-----4------2--|--2-----L--2-----------|
--6--L--L--------------|-----2------------------|--3-----3--------------|
-----------------------|--2---------------------|-----5-----------------|


  E  E  E  E  Q.     E     E  E  E  E  H           E  E  E  E  H         
------------------------|-----------------------|-----------------------|
------------------------|--0--L--L-----0--------|--3--1--1--0--1--------|
--2--0--0-----2---------|--------0--2-----------|--2-----2-----2--------|
--2-----0--L--4------0--|-----0-----------------|--2--2--L--2--2--------|
--3--0--3---------------|-----------------------|--0--------3--0--------|
--0---------------------|--5--------------------|-----------------------|


  E  E  E  E  H           E  E  E  E  E  E  E  E     E  E  E  E  H         
-----------------------|--------------------------|-----------------------|
--1--0--0--------------|--------------------------|--------------0--------|
--0--0--0--2--0--------|--0-----------------------|-----------0-----------|
--2-----2--2--L--------|--2--2--4--5--4--1--4--2--|--2-----2--------------|
-----2-----2--2--------|--1--4--6--7--2-----------|-----2-----------------|
--2--------------------|--------------------------|--2--------------------|


1.

  E  E  E  E  H           E  E  E  E  H           E  E  E  E  H         
-----------------------|-----------------------|-----------------------|
--3--------------------|--1-----------1--------|--2--------------------|
--4-----------1--------|--2--------2-----------|--3--------0--3--------|
--3--L--0--3-----------|--2--L--2--------------|--2--L--2--------------|
-----2-----------------|--0--3-----------------|--1--4-----------------|
--6--------------------|-----------------------|-----------------------|


  E  E  E  E  H           E  E  E  E  H           E  E  E  E  H         
-----------------------|--2--L--L--------------|--0--L--L-----0--------|
--0--L--L-----0--------|--4-----------1--------|--2--------2-----------|
-----------2-----------|--5--------2-----------|--0-----1--------------|
--1--1--4--------------|-----1--4--------------|-----2-----------------|
--2--------------------|--3--------------------|--4--------------------|
-----------------------|-----------------------|-----------------------|

                                                  2.  

  E  E  E  E  H           E  E  E  E  H             E  E  E  E  E  E  E  E   
--0--L--L--------------|--2--L--L---------------||--------------------------|
--2--------------------|--4-----------0---------||--------------------------|
--3--------0--3--------|--4--------2-----------*||--0-----------------------|
--------2--------------|-----1--4--------------*||--2--2--4--5--4--1--4--2--|
--1--4-----------------|--2---------------------||--1--4--6--7--2-----------|
-----------------------|------------------------||--------------------------|


  E  S S S S S S S S S S S S S S    W                       
-------------0-2-4-7-L-----------|--4----------------|----||
-----------0-----------------5-7-|--7----------------|----||
--2----L-1-----------------4-----|--9----------------|----||
-----2-4---------------4-6-------|-------------------|----||
---------------------------------|-------------------|----||
--2------------------------------|-------------------|----||



Version 2



      E  E  E  E  E  E  E  E     E  E  E  E  E  E  E  E   
E||---8-----7-----5-----3-----|--2-----------------------|
B||------------4-----4-----4--|-----0--1-----0-----------|
G||*-----8--------------------|-----------2-----0--2-----|
D||*--------------------------|-----------------------4--|
A||---------------2--------L--|--2--------L--2--------L--|
D||---9--------L--------------|--------------------------|


  E  E  E  E  E  E  E  E     E  E  E  E  H           E   E   E  E  Q.     E   
--------------------------|-----------------------|--7--------------------0--|
--1-----0-----------------|-----------------------|--8--10--10--8--7---------|
--------------2-----0-----|-----------------------|--9-----------------------|
-----1-----1-----1-----1--|--4--------------------|----------------5---------|
--2--------L--2--------L--|-----2--3--0--2--------|--7-------7--9------------|
--------------------------|-----------------------|------9-------------------|


  E  E  E  E  H           E  E  E  E  Q.     E     E  E  E  E  H         
--5--------------------|--5--3--3--2--2---------|-----------------------|
--5--------------------|--5-----5------------3--|--0-----------0--------|
--5-----------2--------|--5-----5-----2---------|--------0--2-----------|
-----------2-----------|--------0--4------------|-----0-----------------|
--------3--------------|-----0------------------|-----------------------|
-----5-----------------|--0---------------------|--5--------------------|


  E  E  E  E  Q.     E     E  E  E  E  H           E  E  E  E  E  E  E  E   
--------------0------2--|--5--------------------|--3--------------2--2--0--|
--3--1--1--0--1---------|-----------------------|--2-----------------------|
--2-----2---------------|--4-----------0--------|--------------2-----------|
--2--2--2--0------------|--------2--4-----------|-----2--4--5--------------|
--0---------------------|-----2-----------------|--1-----------------------|
------------------------|--2--------------------|--------------------------|


  E  E  E  E  H           E   E   E  E  Q.     E     E  E  E  E  H         
--2--------------------|--7--------------------0--|--5--------------------|
--4-----------0--------|--8--10--10--8--7---------|--5--------------------|
--4--------2-----------|--9-----------------------|--5-----------2--------|
-----1--4--------------|----------------5---------|-----------2-----------|
--2--------------------|--7-------7--9------------|--------3--------------|
-----------------------|------9-------------------|-----5-----------------|


  E  E  E  E  Q.     E     E  E  E  E  H            E  E   E  E   H         
--5--3--3--2--2---------|--7--------------------|--10--8---8--7---8--------|
--5-----5------------3--|--------------0--------|--10-----10--5--10--------|
--5-----5-----2---------|--------0--2-----------|---9------9--5---9--------|
--------0--4------------|-----0-----------------|----------------10--------|
-----0------------------|-----------------------|---0--7-------------------|
--0---------------------|--5--------------------|--------------------------|


  E  E  E   E  H           E  E  E  E  E  E  E  E     E  E  E  E  H         
--8--7--7---------------|--0--0--2--3--2--L-----0--|--0--------------------|
--8--8--8--10--8--------|-----2--4--5--4--L--------|--------------0--------|
--9---------9--9--------|--0--------0--4--L--------|-----------0-----------|
------------9--9--------|--------2--------1--4-----|--------2--------------|
------------------------|--1--4--------2--L--------|-----2-----------------|
------------------------|--------------------------|--2--------------------|

1.


  E  E  E  E  H           E  E  E  E  H           E  E  E  E  H         
-----------------------|-----------------------|-----------------------|
--3--------------------|--1-----------1--------|--2--------------------|
--4-----------1--------|--2--------2-----------|--3--------0--3--------|
--3-----0--3-----------|--2-----2--------------|--2-----2--------------|
-----2-----------------|--0--3-----------------|--1--4-----------------|
--6--------------------|-----------------------|-----------------------|


  E  E  E  E  H           E  E  E  E  H           E  E  E  E  H         
-----------------------|--2--------------------|--3-----------0--------|
--0-----------0--------|--4-----------1--------|--5--------2-----------|
-----------2-----------|--5--------2-----------|--6-----1--------------|
--1--1--4--------------|-----1--4--------------|-----2-----------------|
--2--------------------|--3--------------------|--4--------------------|
-----------------------|-----------------------|-----------------------|


                                                  2.

  E  E  E  E  H           E  E  E  E  H             E  E  E  E  E  E  E  E   
--0--------------------|--2---------------------||--0--0--2--3--2--L-----0--|
--2--------------------|--4-----------0---------||-----2--4--5--4--L--------|
--3--------0--3--------|--4--------2-----------*||--0--------0--4--L--------|
--------2--------------|-----1--4--------------*||--------2--------1--4-----|
--1--4-----------------|--2---------------------||--1--4--------2--L--------|
-----------------------|------------------------||--------------------------|


  E  S S S S S S S S S S S S S S    W                  
--0--------------------------0-2-|--4----------------||
-----------0-------0-------0-----|-------------------||
---------1-------1-------1-------|-------------------||
-----2-4-----2-4-------4---------|-------------------||
---------------------------------|-------------------||
--2------------------------------|--2----------------||
Login or Register to remove this ad.