Ads

Chibiusa no Omoi (Sailor Moon) Guitar Tab

Submitted: Oct 24, 2015 by quinndangle2

5
Average: 5 (2 votes)
Download | Listen
Game: Sailor Moon
Composer(s): Takanori Arisawa
Style: Arrangement, Fingerstyle

This song is also called Chibiusa's Feelings

AutoScroll: Slow | Medium | Fast
Title: Chibiusa's Feelings (Chibiusa no Omoi)
From Sailor Moon
Composer: Takanori Arisawa
Arrangement by Brent Quinn

Standard Tuning
Capo 3
Tempo ~ 75



         H        E    E   E   E     E   E   E   E   E   E   E   E     E   E   E   E   E   E   E   E   
E|-------------------------0---2---|-4-----------4---2---0-------2---|-0-------------------------------|
B|---------------------0-----------|-------------0---2-------4-------|-------------4---2---------------|
G|---------------------------------|---------1---------------6-------|-------------------------2---4---|
D|---------------------------------|-------------------------7-------|---------2-----------2-----------|
A|---------------------2-----------|-----2-----------4---------------|-----2-----------0---------------|
E|---------------------------------|-0-------------------------------|-0-------------------------------|


   E   E   E   E   E   E   E   E     E   E   Q    E   E   E   E     E   E   E   E   E   E   E   E 
E|---------0---4---7-------5---4---|-2--------------------0---2---|-4-----------4---2---0-----------|
B|-----0---------------------------|------------------0-----------|-----------------2-------4---7---|
G|---------------------------------|----------------------2-------|---------1---------------6-------|
D|---------2---------------2-------|---------2--------2-----------|-------------------------7-------|
A|-----2---------------2-----------|-----2--------0---------------|-----2-----------4---------------|
E|-0---------------4---------------|-2----------------------------|-0-------------------------------|


   E   E   E   E   E   E   E   E     E   E   E   E   Q    Q      E   E   E   E   E   E   E   E 
E|-0-------------------------------|---------4---0-------------|-0---------------0-------0---2---|
B|-------------4---2---------------|-----0-----------2----4----|-------------0-------0-----------|
G|-------------------------2---4---|-----------------2----4----|---------------------------------|
D|---------2-----------2-----------|---------2-------2----4----|---------2-----------------------|
A|-----2-----------0---------------|-----2-----------4----6----|-----2---------------2-----------|
E|-0-------------------------------|-0-------------------------|-0-------------------------------|


   E   E   E   E   E   E   E   E     E   E   E   E   E   E   E   E     E   S  T T E   E   E   E   E   E
E|-4-----------4---2---0-------2---|-0-------------------------------|-7----------0---4---7-------5---4---|
B|-------------0---2-------4-------|-------------4---2-------5---2---|------------------------------------|
G|---------1---------------6-------|---------------------2---2---4---|------------------------------------|
D|-------------------------7-------|---------2-----------2-----------|--------6-4-2---------------2-------|
A|-----2-----------4---------------|-----2-----------0---------------|-----2------------------2-----------|
E|-0-------------------------------|-0-------------------------------|-0------------------4---------------|


   E   E   Q    E   E   E   E     E   E   E   E   E   E   E   E     E   E   E   E   E   E   E   E
E|-2--------------------0---2---|-4-----------4---2---0-------2---|-0-------------------------------|
B|------------------0-----------|-----------------2-------4-------|-------------4---2---------------|
G|----------------------2-------|---------1---------------6-------|-------------------------2---4---|
D|---------2--------2-----------|-------------------------7-------|---------2-----------2-----------|
A|-----2--------0---------------|-----2-----------4---------------|-----2-----------0---------------|
E|-2----------------------------|-0-------------------------------|-0-------------------------------|

 
   E   E   E   E   Q    Q      E   E   E   E   E   E   E   E     Q.    E   E   E   E   E 
E|---------4---0-------------|-0-------------------0-----------|---------------------------|
B|-----0-----------2----4----|-----------------0---------------|---------------------------|
G|-----------------2----4----|-------------1-----------1---4---|-4-----4---4---2---1-------|
D|---------2-------2----4----|---------2-----------------------|-----------------------4---|
A|-----2-----------4----6----|-----2---------------------------|-6---------5---------------|
E|-0-------------------------|-0-------------------------------|-------7-------------------|

 
   Q.    E   E   E   E   E     Q.    E   E   E   E   E     Q.    E   E   E   E   E
E|---------------------------|---------------------------|-------------------0---2---|
B|---------------------------|-----------4---2-----------|---------------0-----------|
G|-2-----4---2---1-----------|-1-----4-----------1-------|-4---------4---------------|
D|-------------------4---2---|-----------------------2---|---------------------------|
A|-4-----4---3---------------|-2-----2-------------------|-2-----2---2---------------|
E|---------------------------|-----------2-------2-------|---------------------------|


   Q.    E   E   E   E   E     Q.    E   H       E   E   E   E   Q    E   E     Q.    E   E   E   E   E
E|-4-----4---2---0-----------|-0---------------|---------0---4---7----5---4---|-2-----------------0---2---|
B|-----------2-------4---7---|-------4---2-----|-----0------------------------|---------------0-----------|
G|-------------------6-------|-----------------|------------------------------|---------------------------|
D|-------2---1---------------|-----------------|------------------------------|---------------------------|
A|---------------------------|-4-----4---0-----|-----------------4--------4---|-----------2-----------2---|
E|-0-----------------7-------|-----------------|-4-----------4----------------|-2-----2-------------------|


   Q.    E   E   E   E   E     Q.    E   H       E   E   E   E   H       W        E   E   E   E   H
E|-4-----4---2---0-----------|-0---------------|---------4---0---------|--------|-0---------------0-----|
B|-----------2-------4---7---|-------4---2-----|-----0-----------2-----|-4------|-----------------0-----|
G|-------------------6-------|-----------------|-----------------2-----|-4------|-------------1---------|
D|-------2---1---------------|-----------------|---------2-------2-----|-4------|---------2-------------|
A|---------------------------|-4-----4---0-----|-----2-----------4-----|-6------|-----2-----------------|
E|-0-----------------7-------|-----------------|-4---------------------|--------|-0---------------------|



|Key|

W = Whole note
H = Half
Q = Quarter
E = Eighth
S = Sixteenth
T = Thirty-second




Login or Register to remove this ad.