Ads

Baroque (RuneScape) Guitar Tab

Submitted: Dec 02, 2010 by Soupysoup (Last updated: Dec 09, 2010)

5
Average: 5 (2 votes)
Download | Listen
Game: RuneScape
Composer(s): Unknown
Style: Transcription

AutoScroll: Slow | Medium | Fast
Title: Baroque
Game: RuneScape
Tabbed by Chelsea Miller
[email protected]



E|-----------0------------0-----------|-----------2-----------2-----------|---------0-----------0-----------|
B|-----------2------------2-----------|-----------2-----------2-----------|---------2-----------2-----------|
G|-----1-----------1------------1-----|-----3-----------3-----------3-----|-----1---------1-----------1-----|
D|------------------------------------|-----------------------------------|---------------------------------|
A|-4----------------------------------|-----------------------------------|-4-------------------------------|
E|------------------------------------|-2---------------------------------|---------------------------------|


E|---------0-----------0--------------|-----------0-----------0-----------|-----------2------------2------------|
B|---------2-----------2--------------|-----------2-----------2-----------|-----------2------------2------------|
G|-----2---------2-------------2------|-----1-----------1-----------1-----|-----3------------3-----------3------|
D|------------------------------------|-----------------------------------|-------------------------------------|
A|-0----------------------------------|-4---------------------------------|-------------------------------------|
E|------------------------------------|-----------------------------------|-2-----------------------------------|


E|---------0-----------0------------|---------0-----------0-----------|
B|---------0-----------0------------|---------0-----------0-----------|
G|-----1---------1------------1-----|-----1---------1-----------1-----|
D|-2--------------------------------|-2-------------------------------|
A|----------------------------------|---------------------------------|
E|----------------------------------|---------------------------------|


Login or Register to remove this ad.