Ads

Kinjirareta Asobi (hironou2525 version) (Rozen Maiden) Guitar Tab

Submitted: Apr 06, 2013 by worldeditor11 (Last updated: Apr 07, 2013)

5
Average: 5 (4 votes)
Download | Listen
Game: Rozen Maiden
Composer(s): Shinkichi Mitsumune
Style: Arrangement, Fingerstyle, Natural harmonics

Click here for a video example.

AutoScroll: Slow | Medium | Fast
Kinjirareta Asobi
Arranged and tabbed by hironou2525


(Capo 1)
      H        H           H        H           E  E  E  E  E  E  E  E   
D#||--------------------|--------------------|--------------------------|
A#||--5--------4--------|--3--------1--------|--5--------5--4--------4--|
F#||--5--------4--------|--4--------2--------|--5-----5-----4-----4-----|
C#||--5--------4--------|--5--------2--------|--5--5--------4--4--------|
G#||--0--------0--------|--0--------0--------|--0-----------0-----------|
D#||--------------------|--------------------|--------------------------|


                             v                                             
  E  E  E  E  E  E  E  E     W                   E.  S E  E  E  E  S S E   
--------------------------|-------------------|--------------1-----1-0----|
--3--------3--1--------1--|-------------------|-----------3--3---------3--|
--4-----4-----2-----2-----|--2----------------|--------2-----2------------|
--5--5--------2--2--------|--2----------------|--0---3-------0------------|
--0-----------0-----------|--0----------------|--0--------------0---------|
--------------------------|--0----------------|---------------------------|


  S S S S S S S S S S S S S S S S    S S E  S S E  S S E  Q     
----0-------0-------0-------3-1-0-|--5-4-5---------------------|
------2-------3-------2-----------|--6---6--6-5-6--3-2-3-------|
--------2-------2-------2---------|---------7---7--2---2--2----|
----------------------------------|----------------0------2----|
------------------0-------0-------|--0------0-------------0----|
--0-------3-----------------------|----------------------------|


  S S E  S S E  S S E  Q       S S E  S S E  S S E  Q     
--6-5-6--3-2-3--------------|--5-4-5----------------6----|
--5---5--2---2--5-4-5--2----|--6---6--6-5-6---------8----|
--0---0--0---0--6---6--2----|---------7---7--7-6-7--8----|
----------------------------|----------------8---8-------|
---------4-------------4----|--0------0-------------6----|
--0-------------0-----------|----------------6-----------|


   S  S S  S  S  S  S  S  E  S S  E  E     S S E  S S E  S S E  Q     
-----10-9-------------------------------|--5-4-5---------------------|
--10------11-10-11-10-11-10-------------|--6---6--6-5-6--3-2-3-------|
--------------------------9--8-9-10--8--|---------7---7--2---2--2----|
---0------------------------------------|----------------0------2----|
--------------------------0-------------|--0------0-------------0----|
--------------0-------------------------|----------------------------|


  S S E  S S E  S S E  Q       E  S S S Q    S S S S S S S    S S S S S S  S S  Q    Q
--6-5-6--3-2-3---------5----|--------------------------6---|-----------------9-10---------|
--5---5--2---2--5-4-5--5----|-----------6------------6-----|----------6-8-10--------------|
--0---0--0---0--6---6--6----|-----6-7-9-7--------7-9-------|----6-7-9---------------------|
----------------------------|------------------------------|--------------------0---------|
---------4-------------0----|----------------8-6---------6-|--0----------------------0----|
--0-------------0-----------|--6--------6------------------|------------------------------|


(Capo 2)

  H        Q.     E     H        Q.     E     E  E  E  E  Q       E  E  E  E   
------------------0--|--4--------2---------|-----------2--4----|--------3--5--|
--9--------5---------|--4--------2------0--|--2--4--5-----5----|--5--7--5-----|
--9--------6---------|--4--------3---------|--2-----------5----|--4-----4-----|
--9--------7---------|--2------------------|--4-----------4----|--------------|
--7--------7---------|---------------------|--2----------------|--3-----3-----|
-----------5---------|-----------0---------|-------------------|--------------|


  E   E  E  E  Q       E  E  E  E  E  E  E  E     E  E  E  S S S S E  E  E   
--7-----------------|--------------4--------2--|----------------------------|
--7--10--7----------|--4--------5--4-----4-----|-----4--5--4-5-L-5-4--5--4--|
--8---------8-------|--1-----1-----4--4--------|-----4--4--4-4-L-4----4--4--|
---------------9----|--1--1--------2-----------|--------6--6-6-L-6----6--6--|
--------------------|--------------------------|----------------------------|
--7-----------------|--0-----------------------|--0-----0------0------0-----|


  E  E  E  E  E  E  E  E     E  E  E  S S S S E  Q     
--1--------2--5--------4--|-----1--2--1-2-L-2-1--2----|
--2-----2-----2-----------|-----2--2----2-L-2----2----|
--2--2--------2-----2-----|---------------------------|
-----------------3--------|---------------------------|
--------------4-----------|---------------------------|
--2-----------------------|--2-----2------2------2----|


  E  E  E  E  E  E  E  E     E  E  E  S S S S E  E  E   
--------------4--------2--|----------------------------|
--4--------5--4-----4-----|-----4--5--4-5-L-5-4--5--4--|
--1-----1-----4--4--------|-----4--4--4-4-L-4----4--4--|
--1--1--------2-----------|--------6--6-6-L-6----6--6--|
--------------------------|----------------------------|
--0-----------------------|--0-----0------0------0-----|


  E  E  E  E  E  E  E  E     E  E  E  E  E  E  E  E   
--1--------2--5--------4--|--3--------4--7--------6--|
--2-----2-----2-----------|--4-----4-----4-----4-----|
--2--2--------2-----2-----|--3--3--------4--4--------|
-----------------3--------|--------------------------|
--------------4-----------|--------------6-----------|
--2-----------------------|--3-----------------------|


                                            NH          
  E  E  E  E  E  E  E  E     E  E  E  E     Q    E  E   
--7-----------------4-----|-------------------------0--|
--4--------------4-----0--|--2-------------------4-----|
--4-----------4-----------|--1--------1----------------|
-----------4--------------|--2--1--2-----<>13----------|
-----4--6-----------------|--0-------------------------|
--4-----------------------|----------------------------|


                                            NH          
  E  E  E  E  E  E  E  E     E  E  E  E     Q    E  E   
--2-----------------2-----|----------------------------|
--4-----------4--------4--|--0-------------------------|
--2-----2--------2--------|--1--------1----------2--1--|
-----4-----4--------------|--1--1--2-----<>13----------|
--2-----------------------|----------------------------|
--------------------------|--0-------------------------|


                                                  |3|   
  E  E  E  E  E  E  E  E     E  E  E  E  E  E  E  S E   
--------------------------|----------------------------|
--------------5-----------|--------------2--4----------|
--2--------2-----------2--|--1--------1--------1--2-3--|
--2-----2-----------2-----|--2--1--2-------------------|
-----4-----------4--------|----------------------------|
--2-----------------------|--0-------------------------|


  E  E  E  E  E  E  E  E     Q    Q    Q    Q
--------------------------|--4----2----0----0----|
--0--------0--2--------4--|--4----2----0----0----|
--------2-----2-----2-----|--5-------------------|
-----1-----------4--------|--6-------------------|
--2-----0-----------------|--6-------------------|
--------------2-----------|--4----2----0----0----|

(Capo 1)

       |--3--|                                          
  Q    E  E  E  Q    Q       S S E  S S E  S S E  Q     
--5----5--6--8--5----3----|--5-4-5---------------------|
--6-------------5----5----|--6---6--6-5-6--3-2-3-------|
--7-------------6---------|---------7---7--2---2--2----|
--7-----------------------|----------------0------2----|
----------------0---------|--0------0-------------0----|
--6-----------------------|----------------------------|


  S S E  S S E  S S E  Q       S S E  S S E  S S E  Q     
--6-5-6--3-2-3--------------|--5-4-5----------------6----|
--5---5--2---2--5-4-5--2----|--6---6--6-5-6---------8----|
--0---0--0---0--6---6--2----|---------7---7--7-6-7--8----|
----------------------------|----------------8---8-------|
---------4-------------4----|--0------0-------------6----|
--0-------------0-----------|----------------6-----------|


   S  S S  S  S  S  S  S  E  S S  E  E     S S E  S S E  S S E  Q     
-----10-9-------------------------------|--5-4-5---------------------|
--10------11-10-11-10-11-10-------------|--6---6--6-5-6--3-2-3-------|
--------------------------9--8-9-10--8--|---------7---7--2---2--2----|
---0------------------------------------|----------------0------2----|
--------------------------0-------------|--0------0-------------0----|
--------------0-------------------------|----------------------------|


  S S E  S S E  S S E  Q       E  S S S Q    S S S S S S S  
--6-5-6--3-2-3---------5----|--------------------------6---|
--5---5--2---2--5-4-5--5----|-----------6------------6-----|
--0---0--0---0--6---6--6----|-----6-7-9-7--------7-9-------|
----------------------------|------------------------------|
---------4-------------0----|----------------8-6---------6-|
--0-------------0-----------|--6--------6------------------|


  S S S S S S  S S  Q    Q        E   E   E   E  E  E  E  E   
-----------------9-10---------|------------------6-----------|
----------6-8-10--------------|--10----------10--6--------6--|
----6-7-9---------------------|--10------10------7-----7-----|
--------------------0---------|--10--10-------------8--------|
--0----------------------0----|---8--------------------------|
------------------------------|------------------6-----------|


  E  E  E  E  E  E  E  E     E  E  E.  S Q    Q       Q    E.  S Q    Q     
--5--------5--3-----------|--------5---------------|-------5---------------|
--5-----5-----3-----3-----|--5---------5-5----3----|--5--------5-5----3----|
--5--5--------4--4-----4--|-----5--------5----2----|--5----------5----2----|
--3-----------3-----------|--0---------------------|--0--------------------|
--------------------------|--------------0---------|-------------0---------|
--------------------------|------------------------|-----------------------|


  E  E  E  E  Q       E  E  E  E     Q    Q    Q     
-----------2--4----|--------3--5--|--8---------L----|
--2--4--5-----5----|--5--7--5-----|--8---------L----|
--2-----------5----|--4-----4-----|--9---------L----|
--4-----------4----|--------------|-----------------|
--2----------------|--3-----3-----|-----------------|
-------------------|--------------|--8----8----8----|


  S S S S S S S S S S S S S S S S    E  Q    E  E  E   E   E   
--5-4-5-7-5-3---------------------|---------------------------|
--------------6-5-6-5-6-8-6-5---6-|-----5-------3--5--10------|
------------------------------7---|-----5-------3--5---9---9--|
--0-------0-------0-------0-------|-----------------------10--|
----------------------------------|--0-------0-------------0--|
----------------------------------|----------------0----------|


  S S S S S S S S S S S S S S S S    E   E  E   E  S S S S S S E   
--5-4-5-7-5-3---------------------|-----10------9-----------------|
--------------6-5-6-5-6-8-6-5---6-|-----10-----10--5---5-6-5------|
------------------------------7---|------9------9----7-------6----|
--0-------0-------0-------0-------|----------------------------7--|
----------------------------------|--0------0--------------0------|
----------------------------------|----------------0--------------|


  S S S S S S S S S S S S S S S S    E  Q    E  E  E   E   E   
--5-4-5-7-5-3---------------------|---------------------------|
--------------6-5-6-5-6-8-6-5---6-|-----5-------3--5--10------|
------------------------------7---|-----5-------3--5---9---9--|
--0-------0-------0-------0-------|-----------------------10--|
----------------------------------|--0-------0-------------0--|
----------------------------------|----------------0----------|


  S S S S S S S S S S S S S S S S    E   E  E   E  S S S S S S E   
--5-4-5-7-5-3---------------------|-----10------9-----------------|
--------------6-5-6-5-6-8-6-5---6-|-----10-----10--5---5-6-5------|
------------------------------7---|------9------9----7-------6----|
--0-------0-------0-------0-------|----------------------------7--|
----------------------------------|--0------0--------------0------|
----------------------------------|----------------0--------------|


       |--3--|                    |--3--|              
  Q    E  E  E  Q    Q       Q    E  E  E  Q     Q     
----------0--1--3---------|----------------5-----9----|
--1----3--------5----5----|----------6--8--5----10----|
--2-------------5---------|--7----9--------6-----9----|
--3-----------------------|--8------------------------|
----------------3---------|----------------0----------|
--1-----------------------|--6------------------------|


  E.  S E  E  E  E  S S E     S S S S S S S S S S S S S S S S  
--------------1-----1-0----|----0-------0-------0-------3-1-0-|
-----------3--3---------3--|------2-------3-------2-----------|
--------2-----2------------|--------2-------2-------2---------|
--0---3-------0------------|----------------------------------|
--0--------------0---------|------------------0-------0-------|
---------------------------|--0-------3-----------------------|


  S S E  S S E  S S E  Q       S S E  S S E  S S E  Q     
--5-4-5---------------------|--6-5-6--3-2-3--------------|
--6---6--6-5-6--3-2-3-------|--5---5--2---2--5-4-5--2----|
---------7---7--2---2--2----|--0---0--0---0--6---6--2----|
----------------0------2----|----------------------------|
--0------0-------------0----|---------4-------------4----|
----------------------------|--0-------------0-----------|


  S S E  S S E  S S E  Q        S  S S  S  S  S  S  S  E  S S  E  E   
--5-4-5----------------6----|-----10-9-------------------------------|
--6---6--6-5-6---------8----|--10------11-10-11-10-11-10-------------|
---------7---7--7-6-7--8----|--------------------------9--8-9-10--8--|
----------------8---8-------|---0------------------------------------|
--0------0-------------6----|--------------------------0-------------|
----------------6-----------|--------------0-------------------------|


  S S E  S S E  S S E  Q       S S E  S S E  S S E  Q     
--5-4-5---------------------|--6-5-6--3-2-3---------5----|
--6---6--6-5-6--3-2-3-------|--5---5--2---2--5-4-5--5----|
---------7---7--2---2--2----|--0---0--0---0--6---6--6----|
----------------0------2----|----------------------------|
--0------0-------------0----|---------4-------------0----|
----------------------------|--0-------------0-----------|


  E  S S S Q    S S S S S S S    S S S S S S  S S  Q    Q     
--------------------------6---|-----------------9-10---------|
-----------6------------6-----|----------6-8-10--------------|
-----6-7-9-7--------7-9-------|----6-7-9---------------------|
------------------------------|--------------------0---------|
----------------8-6---------6-|--0----------------------0----|
--6--------6------------------|------------------------------|


  E.  S E  E  E  E  S S E     S S S S S S S S S S S S S S S S  
--------------1-----1-0----|----0-------0-------0-------3-1-0-|
-----------3--3---------3--|------2-------3-------2-----------|
--------2-----2------------|--------2-------2-------2---------|
--0---3-------0------------|----------------------------------|
--0--------------0---------|------------------0-------0-------|
---------------------------|--0-------3-----------------------|


  S S E  S S E  S S E  Q       S S E  S S E  S S E  Q     
--5-4-5---------------------|--6-5-6--3-2-3--------------|
--6---6--6-5-6--3-2-3-------|--5---5--2---2--5-4-5--2----|
---------7---7--2---2--2----|--0---0--0---0--6---6--2----|
----------------0------2----|----------------------------|
--0------0-------------0----|---------4-------------4----|
----------------------------|--0-------------0-----------|


  S S E  S S E  S S E  Q        S  S S  S  S  S  S  S  E  S S  E  E   
--5-4-5----------------6----|-----10-9-------------------------------|
--6---6--6-5-6---------8----|--10------11-10-11-10-11-10-------------|
---------7---7--7-6-7--8----|--------------------------9--8-9-10--8--|
----------------8---8-------|---0------------------------------------|
--0------0-------------6----|--------------------------0-------------|
----------------6-----------|--------------0-------------------------|


  S S E  S S E  S S E  Q       S S E  S S E  S S E  Q     
--5-4-5---------------------|--6-5-6--3-2-3---------5----|
--6---6--6-5-6--3-2-3-------|--5---5--2---2--5-4-5--5----|
---------7---7--2---2--2----|--0---0--0---0--6---6--6----|
----------------0------2----|----------------------------|
--0------0-------------0----|---------4-------------0----|
----------------------------|--0-------------0-----------|


  E  S S S Q    S S S S S S S    S S S S S S  S S  Q    Q     
--------------------------6---|-----------------9-10---------|
-----------6------------6-----|----------6-8-10--------------|
-----6-7-9-7--------7-9-------|----6-7-9---------------------|
------------------------------|--------------------0---------|
----------------8-6---------6-|--0----------------------0----|
--6--------6------------------|------------------------------|


   E   E   E   E  E  E  E  E     E  E  E  E  E  E  E  E   
------------------6-----------|--5--------5--3-----------|
--10----------10--6-----------|--5-----5-----3-----3-----|
--10------10------7--------6--|--5--5--------4--4-----4--|
--10--10----------------7-----|--3-----------3-----------|
---8-----------------8--------|--------------------------|
------------------6-----------|--------------------------|


  E  E  E.  S Q    Q       Q    E.  S Q    Q       E  E  E  E  Q     
--------5---------------|-------5---------------|-----------2--4----|
--5---------5-5----3----|--5--------5-5----3----|--2--4--5-----5----|
-----5--------5----2----|--5----------5----2----|--2-----------5----|
--0---------------------|-----------------------|--4-----------4----|
--------------0---------|--0----------0---------|--2----------------|
------------------------|-----------------------|-------------------|


  E  E  E  E     Q    Q    Q     Q       H        H         
--------3--5--|--8--------------------|--------------------|
--5--7--5-----|--8----8---------------|--5--------4--------|
--4-----4-----|--9---------9----------|--5--------4--------|
--------------|-----------------10----|--5--------4--------|
--3-----3-----|-----------------------|--0--------0--------|
--------------|--8--------------------|--------------------|


  H        H           E  E  E  E  E  E  E  E     E  E  E  E  E  E  E  E   
--------------------|--------------------------|--------------------------|
--3--------1--------|--5--------5--4--------4--|--3--------3--1--------1--|
--4--------2--------|--5-----5-----4-----4-----|--4-----4-----2-----2-----|
--5--------2--------|--5--5--------4--4--------|--5--5--------2--2--------|
--0--------0--------|--0-----------0-----------|--0-----------0-----------|
--------------------|--------------------------|--------------------------|


  W                  
-------------------||
-------------------||
--2----------------||
--2----------------||
--0----------------||
--0----------------||
Login or Register to remove this ad.

2 comments on Kinjirareta Asobi (hironou2525 version)

I'm confused about the

5

I'm confused about the tuning. You want me to half step it then put a capo on fret 1? Isn't that just standard tuning?

If you want to switch between standard and capo fret 1 you can just leave your capo on the nut.

Awesome tab though, very difficult =)

I think the slide at measure

I think the slide at measure 37 would be more difficult.

   Q    Q    Q    Q
|--4----2----0----0----| 
|--4----2----0----0----|
|--5-------------------|
|--6-------------------|
|--6-------------------|
|--4----2----0----0----|

You switch the capo between the 2nd and 1st fret here right before you play the last chord instead of at the end of the measure. It isn't marked clearly but it can be heard in the midi.