Ads

Snowstorm (Intro) (Rosario + Vampire) Guitar Tab

Submitted: Feb 18, 2014 by jmveepv (Last updated: Feb 18, 2014)

0
Download | Listen
Game: Rosario + Vampire
Composer(s): Nana Mizuki
Style: Alternate picking, Transcription

AutoScroll: Slow | Medium | Fast
Snowstorm (intro only)
Rosario + Vampire
Rie Kugimiya
Jmveepv
2/17/14

e---4^6^4-3-1--1-3^4^3---------
B-1--------------------4/6-4---
G------------------------------
D------------------------------
A------------------------------
E------------------------------

e-----3-----3-1----------------
B-1-4---1-4-----4-3-1/3-1------
G------------------------------
D------------------------------
A------------------------------
E------------------------------
Login or Register to remove this ad.

1 comment on Snowstorm (Intro)

May I suggest for that second

May I suggest for that second phrase:

1) G: 5
2) B: 4
3) E: 3 (x2)

And the way you end it is good, it can either start at the 1 on E string or 6 on B. I personally like making a big slide into that 6 on the B :)

That chord is the bread & butter of the song.