Yuujou ~ Atarashii Tochi he (Romeo x Juliet) Guitar Tab

Submitted: Mar 27, 2017 by Coolbreeze

0
Download | Listen
Game: Romeo x Juliet
Composer(s): Hitoshi Sakimoto
Style: 2 or more instruments, Arrangement, Fingerstyle

AutoScroll: Slow | Medium | Fast
			Yuujou ~Atarashii Tochi He~
			    ~Romeo x Juliet~

Music by Sakimoto Hitoshi
Tabbed by Coolbreeze
Tempo = 90

Guitar 1


     H.              H.              H.              H.            
E||---------------|---------------|---------------|---------------|
B||---------------|---------------|---------------|---------------|
G||---------------|---------------|---------------|---------------|
D||---------------|---------------|---------------|---------------|
A||---------------|---------------|---------------|---------------|
E||---------------|---------------|---------------|---------------|


  E  E  Q    E  E     E  E  H           Q    H           E  Q.     E  E   
--------0----1-----|-----3--L--------|--7----3--------|--8--3------0--0--|
--1--3----------3--|--L--------------|----------------|------------------|
-------------------|-----------------|----------------|------------------|
-------------------|-----------------|----------------|------------------|
-------------------|-----------------|----------------|------------------|
-------------------|-----------------|----------------|------------------|


  S  E.  Q    E  E     Q.     E  E  E     H        S  E.     Q    H         
--0h-1--------8-----|------------0-----|--0---------------|-------5--------|
-----------------6--|--6------6-----3--|-----------4h-5---|--3-------------|
--------------------|------------------|------------------|----------------|
--------------------|------------------|------------------|----------------|
--------------------|------------------|------------------|----------------|
--------------------|------------------|------------------|----------------|


                                                               ^               
  E  E  E  E  E  E     E  E  E  Q.        E  E  E  E  E  E     E  E  H         
--------0-----1-----|--3--3------------|--------0--3--1-----|--3--3--L--------|
--1--3-----3-----3--|--------1--1------|--1--3-----------3--|--0--------------|
--------------------|------------------|--------------------|--0--------------|
--------------------|------------------|--------------------|-----------------|
--------------------|------------------|--------------------|-----------------|
--------------------|------------------|--------------------|-----------------|


                     ^                                              
  S  E.  H           Q.     Q.        H.              H.            
------------------|--1-------------|---------------|---------------|
--0h-1------------|--1------1------|---------------|---------------|
------------------|--1------1------|---------------|---------------|
------------------|----------------|---------------|---------------|
------------------|----------------|---------------|---------------|
------------------|----------------|---------------|---------------|


  E  E  Q    E  E     E  E  H           Q    H           E  Q    E  E  E   
--------0----1-----|-----3--L--------|--7----3--------|--8--3-------1--0--|
--1--3----------3--|--L--------------|----------------|----------3--------|
-------------------|-----------------|----------------|-------------------|
-------------------|-----------------|----------------|-------------------|
-------------------|-----------------|----------------|-------------------|
-------------------|-----------------|----------------|-------------------|


  S  E.  Q    E  E     Q    Q    Q       H        S  E.   
--0h-1--------8-----|-------0---------|--0---------------|
-----------------6--|--6---------3----|-----------4h-5---|
--------------------|-----------------|------------------|
--------------------|-----------------|------------------|
--------------------|-----------------|------------------|
--------------------|-----------------|------------------|


  Q    E  T  T S Q       E  E  E  E  E  E     E  E  E  Q    E   
----------2h-3-2------|--------0-----1-----|--3--3-------------|
--3----3---------3----|--1--3-----1-----3--|--------1--1----1--|
----------------------|--------------------|-----------0----0--|
----------------------|--------------------|-------------------|
----------------------|--------------------|-------------------|
----------------------|--------------------|-------------------|


  E  E  E  E  E  E     E  Q.     Q       S  E.  H           Q.     Q.      
--------0-----1-----|-----3-----------|------------------|---------1------|
--1--3-----1-----3--|--1--------------|--0h-1------------|---------1------|
--------------------|-----------------|------------------|---------1------|
--------------------|-----------------|------------------|----------------|
--------------------|-----------------|------------------|----------------|
--------------------|-----------------|------------------|----------------|


  H.              H.              Q.     E  E  E     Q    E  E  E  E   
---------------|---------------|--6------3--------|--8----------------|
---------------|---------------|------------3--4--|-------4--4--3--4--|
---------------|---------------|------------------|-------------------|
---------------|---------------|------------------|-------------------|
---------------|---------------|------------------|-------------------|
---------------|---------------|------------------|-------------------|


  Q    Q    E  E     Q    E  E  E  E     E  E  Q    E  E     E  E  E  Q.      
--6----4----3--1--|--1----------3-----|-----1--2----4--1--|--L--------2------|
------------------|-------4--4-----4--|--4----------------|-----4--2---------|
------------------|-------------------|-------------------|------------------|
------------------|-------------------|-------------------|------------------|
------------------|-------------------|-------------------|------------------|
------------------|-------------------|-------------------|------------------|


  E  E  E  E  E  E     E  E  E    Q.        E  E  Q    E  E   
-----1--2--1--4--1--|--2-----------------|-----1--2----4--1--|
--4-----------------|-----4--2--2g4------|--4----------------|
--------------------|--------------------|-------------------|
--------------------|--------------------|-------------------|
--------------------|--------------------|-------------------|
--------------------|--------------------|-------------------|


  E  E  E  Q.        E  E  Q    E  E     Q    Q    Q       S  E.  H         
--L--------2------|-----1--2----4--1--|--1--------------|------------------|
-----4--2---------|--4----------------|--2----4----2----|--2h-4------------|
------------------|-------------------|-----------------|------------------|
------------------|-------------------|-----------------|------------------|
------------------|-------------------|-----------------|------------------|
------------------|-------------------|-----------------|------------------|


  H.              H        E   S   S     Q.     Q.        H.            
---------------|--------------10h-11-|--11-------------|---------------|
---------------|---------------------|-----------------|---------------|
---------------|---------------------|-----------------|---------------|
---------------|---------------------|-----------------|---------------|
---------------|---------------------|-----------------|---------------|
---------------|---------------------|-----------------|---------------|


                                   ^                              
  H        Q       H.              H.              H.             
--6-------------|---------------|--6------------|---------------||
-----------3----|---------------|--6------------|---------------||
-----------5----|---------------|--7------------|---------------||
----------------|---------------|---------------|---------------||
----------------|---------------|---------------|---------------||
----------------|---------------|--6------------|---------------||


Guitar 2


     E  E  E  Q    E     H        E  E     E  E  E  Q    E     H.            
E||-----------0-------|-----------------|-------------------|--3------------|
B||--------3----------|-----------------|--1--------1-------|---------------|
G||-----0-------------|--0--------------|--------0----------|---------------|
D||-------------------|--------------2--|-----3-------------|---------------|
A||--3-------------3--|-----------------|-------------------|---------------|
E||-------------------|--------------0--|--1-------------1--|---------------|


  E  E  E  Q    E     E  E  E  Q.        E  E  Q    E  E     E  E  E  Q    E   
-------------------|------------------|-------------------|-------------------|
-----------1-------|--------1--1------|--0----------0--1--|-----------3-------|
--------0----------|-----0------------|--------0----------|--------3----------|
-----2-------------|------------------|-----0-------------|-----2-------------|
--3----------------|------------------|-------------------|--3----------------|
----------------0--|--1---------------|--0----------------|----------------0--|


  E  E  E  E  Q       E  E  H           E  E  H           E  E  Q    E  E   
-------------------|-----------------|-----------------|-------------------|
-----------1-------|-----------------|-----------------|----------------0--|
--------2----------|--------5--------|--------5--------|--------2----2-----|
-----3--------3----|-----6-----------|-----5-----------|-----4-------------|
--0----------------|-----------------|-----------------|-------------------|
-------------------|--4--------------|--3--------------|--2----------------|


  H.              Q    Q.     E     H.              Q    E  Q    E   
---------------|-----------------|---------------|------------------|
---------------|-----------------|---------------|-------1--1----0--|
--0------------|-------0---------|--0------------|-------0----------|
---------------|-----------------|---------------|------------------|
---------------|-----------------|---------------|------------------|
--3------------|-------3------3--|--3------------|------------------|


                                                        ^             
  E  E  E  Q.        H.              E  E  E  Q.        H.            
------------------|---------------|------------------|---------------|
-----------1------|---------------|-----------1------|--1------------|
--------0---------|---------------|--------2---------|--2------------|
-----2------------|---------------|-----3------------|--3------------|
--3---------------|---------------|--3---------------|---------------|
------------------|---------------|------------------|---------------|


                                                ^                               
  E  E  E  Q    E     E  E  E  E.  S E     Q    Q    E  E     E  E  E  Q    E   
-------------------|--------------------|------------------|-------------------|
-----------1-------|--------1--1---0-1--|--0---------0--1--|-----------1-------|
--------0----------|-----0--------------|-------0----------|--------3----------|
-----2-------------|--------------------|-------2----2-----|-----2-------------|
--3----------------|--------------------|------------------|--3----------------|
----------------0--|--1-----------------|--0---------------|----------------0--|


                         v                                                     
  E  E  E  Q    E     E  E  E  E  E  E     E  E  Q.     E     E  Q.     E  E   
-------------------|--------------------|------------------|------------------|
-----------1-------|-----1--------1-----|-----1--1---------|---------------0--|
--------2----------|--1-----1-----------|-----0------------|-----2------2-----|
-----3----------3--|-----3-----3-----3--|--2------------2--|--0---------------|
-------------------|--------------------|------------------|------------------|
--1----------------|--1-----------------|--0---------------|------------------|


  E  E  H           Q    E  Q.        E  E  Q.     E     E  E  E  Q    E   
-----------------|-----------------|------------------|-------------------|
-----------------|-----------------|------------------|--------1--1----0--|
--------0--------|-----------------|--------0---------|-----0-----2-------|
-----3-----------|-----------------|-----3------------|--3----------------|
-----------------|-----------------|------------------|-------------------|
--1--------------|-------1--1------|--3------------3--|-------------------|


  E  E  E  Q    E     Q    Q.     E     E  E  E  Q    E     Q    E  Q.      
-------------------|-----------------|-------------------|-----------------|
-----------1-------|-----------------|-----------1-------|--1-------0------|
--------0----------|--1--------------|--------2----------|--0----0--2------|
-----2----------3--|-----------------|-----3-------------|--3--------------|
--3----------------|--3----3------3--|--3----------------|-----------------|
-------------------|-----------------|----------------0--|-----------------|


                                           ^                               
  E  E  Q.     E     E  E  Q.     E     E  E  H           E  E  Q.     E   
------------------|------------------|-----------------|------------------|
--------4---------|------------------|--------3--------|------------------|
-----3------------|--------5---------|-----3-----------|--------3---------|
--1---------------|-----5------------|--5--3-----------|-----5------------|
------------------|------------------|-----------------|--3------------0--|
---------------0--|--4------------0--|--3--------------|------------------|


  E  E  Q    Q       Q.     S  E.  E     E  H        E     Q    E  Q    E   
------------------|-------------------|-----------------|------------------|
--------4---------|---------2h-4------|-----------------|------------------|
-----3------------|--3----------------|-----------------|------------------|
-----4------------|-------------------|-----6-----------|--6---------------|
--2----------2----|--2-------------2--|--4-----------4--|-------4-------0--|
------------------|-------------------|-----------------|----------4-------|


  E  E  Q    Q       Q.     S  E.  E     E  Q    Q.        Q    E  Q    E   
------------------|-------------------|-----------------|------------------|
--------4---------|---------2h-4------|-----------------|------------------|
-----3------------|--3----------------|-----------------|------------------|
-----4------------|-------------------|-----6-----------|----------6-------|
--2----------2----|--2-------------2--|--4-------4------|-------4-------4--|
------------------|-------------------|-----------------|------------------|


  E  E  Q    Q       E  E  E  Q.        E  E  E  Q.        E  E  E  Q.      
-------------3----|-----------3------|------------------|------------------|
--------4---------|--------4---------|-----------4------|-----------4------|
-----3------------|-----3------------|--------5---------|--------3---------|
--1---------------|------------------|-----6------------|-----4------------|
------------------|--4---------------|--3---------------|--2---------------|
------------------|------------------|------------------|------------------|


  E  E  E  Q    E     Q.     Q.        E  E  E  Q.        H.            
-------------------|----------------|-----------1------|---------------|
--------1--4-------|----------------|--------3---------|---------------|
-----1-------------|----------------|-----3------------|---------------|
-------------------|----------------|------------------|---------------|
--1-------------1--|--L------1------|--1---------------|---------------|
-------------------|----------------|------------------|---------------|


  ^              
  H.             
--1------------||
--3------------||
--0------------||
--1------------||
---------------||
---------------||
Login or Register to remove this ad.