Ads

Night of The Shooting Star (Romancing SaGa) Guitar Tab

Submitted: Apr 10, 2020 by plapoa (Last updated: Apr 25, 2020)

0
Download | Listen
Game: Romancing SaGa
Composer(s): Kenji Ito
Style: Arrangement, Artificial harmonics

AutoScroll: Slow | Medium | Fast
Title: Night of The Shooting Star
Game: Romancing SaGa
Composer: Kenji Ito 
Tabber: plapoa 

here is the original: https://www.youtube.com/watch?v=EC7u5V51rHQ

and here with hawaian guitar soundfont: https://soundcloud.com/hanse-dersen/night-of-the-shooting-star-h


E|-------------5-------------------|------3-----------------|-------------0-----------3-------|
B|-5---3---5-------5---3---1---3---|-0---------3------------|-1---0---1-------2---3-------3---|
G|---------------------------------|------------------------|-------------------------0-------|
D|---------------------------------|------------------------|-0---------------------------0---|
A|-3-------------------------------|----------------0---2---|---------------------------------|
E|---------------------3---1---3---|-0----------------------|-----------------1---------------|


E|-1----0--------------|-------------5-------------------|------3--------------|-3---1---3-------3---------------|
B|---------------------|-5---3---5-------5---3---1---3---|-0---------3---------|------------<13>-----------------|
G|---------------------|---------------------------------|---------------------|---------------------------------|
D|-----------0----2----|---------------------------------|---------------------|-------------------------3---0---|
A|-3-------------------|-3-------------------------------|---------------------|---------------------2-----------|
E|---------------------|---------------------3---1---3---|-0--------------1----|-3-------------------------------|


E|---------------------------------|-0------|-------------5-------------------|------3-----------------|
B|-----4---------------4---2---4---|--------|-5---3---5-------5---3---1---3---|-0---------3------------|
G|------------<15>-----------------|--------|---------------------------------|------------------------|
D|<15>----<15>----<15>-------------|--------|---------------------------------|------------------------|
A|---------------------------------|-3------|-3-------------------------------|----------------0---2---|
E|-2-------------------4---2---4---|--------|---------------------3---1---3---|-0----------------------|


E|-------------0-----------3-------|-1----0--------------|-------------5-------------------|
B|-1---0---1-------2---3-------3---|---------------------|-5---3---5-------5---3---1---3---|
G|-------------------------0-------|---------------------|---------------------------------|
D|-0---------------------------0---|-----------0----2----|---------------------------------|
A|---------------------------------|-3-------------------|-3-------------------------------|
E|-----------------1---------------|---------------------|---------------------3---1---3---|


E|------3--------------|-3---1---3-------3---------------|---------------------------------|
B|-0---------3---------|------------<13>-----------------|-----4---------------4---2---4---|
G|---------------------|---------------------------------|------------<15>-----------------|
D|---------------------|-------------------------3---0---|<15>----<15>----<15>-------------|
A|---------------------|---------------------2-----------|---------------------------------|
E|-0--------------1----|-3-------------------------------|-2-------------------4---2---4---|


E|-0------|-------------5-------------------|------3----------|
B|--------|-5---3---5-------5---3---1---3---|-0---------3-----|
G|--------|---------------------------------|-----------------|
D|--------|---------------------------------|-----------------|
A|-3------|-3-------------------------------|-----------------|
E|--------|---------------------3---1---3---|-0---------------|

Login or Register to remove this ad.