Whale. Shark. (Rogue Legacy) Guitar Tab

Submitted: Oct 24, 2015 by jmfantin

0
Download | Listen
Game: Rogue Legacy
Composer(s): Tettix, A Shell in the Pit
Style: Alternate picking, Transcription

AutoScroll: Slow | Medium | Fast
e|---0---0---0---0---0---0---0---0-|---0---0---0---0---0---0---0---0-|
A|-1---1---1---1---1---1---1---1---|-0---0---0---0---0---0---1---3---|
D|---------------------------------|---------------------------------|
G|---------------------------------|---------------------------------|
B|---------------------------------|---------------------------------|
E|---------------------------------|---------------------------------|

---------------------------------|---------------------------------|
---1---1---1---1---1---1---1---1-|---3---3---3---3---3---3---3---3-|
-2---2---2---2---2---2---2---2---|-4---4---4---4---4---4---4---4---|
---------------------------------|---------------------------------|
---------------------------------|---------------------------------|
---------------------------------|---------------------------------|
Login or Register to remove this ad.