Login or Register to remove this ad.

Save Room (Resident Evil) Guitar Tab

Submitted: May 18, 2017 by Adrien2002

0
Download | Listen
Game: Resident Evil
Composer(s): Masami Ueda
Style: Transcription
Series: Resident Evil

AutoScroll: Slow | Medium | Fast
Save Room
Resident Evil (1996) - Playstation
Masami Ueda
Tabbed by Adrien Fernandes
May, the 9th, 2017

E|---------6-----------6-----------6-----------6---|
B|-----3-4---------3-4---------3-4---------3-4-----|
G|---0-------5---0-------5---0-------5---0-------5-|
D|-------------------------------------------------|
A|-3-----------3-----------3-----------3-----------|
E|-------------------------------------------------|


E|---------11-----------11-----------11-----------11---|
B|-----8-9----6-----8-9----6-----8-9----6-----8-9----6-|
G|-----------------------------------------------------|
D|---6------------6------------6------------6----------|
A|-4------------4------------4------------4------------|
E|-----------------------------------------------------|

The other tab was not correct at all to me so I wrote
my own tab only using my ears and the original track in
the game :
https://www.youtube.com/watch?v=vb_Bb8JA2pg
You can play it with the standard tune, no capo needed.
Login or Register to remove this ad.

1 comment on Save Room

Alternate version for the

Alternate version for the second half:

E|---------11----|
B|-----8-9-------|
G|------------10-|
D|---------------|
A|---9-----------|
E|-7-------------|