Assassin Cross of Sunset (Ragnarok Online) Guitar Tab

Submitted: Feb 09, 2011 by hslesperance (Last updated: Aug 10, 2012)

5
Average: 5 (3 votes)
Download | Listen
Game: Ragnarok Online
Composer(s): soundTeMP
Style: 2 or more instruments, Transcription

AutoScroll: Slow | Medium | Fast
Assassin Cross of Sunset
Ragnarok Online
Composed by soundTeMP
Tabbed by hsleserance
2/9/11

Standard Tuning




Guitar 1

       4/4
  E E   Q    Q   Q.    E   Q    S E.   Q   Q
|-----|------------------|---------------------|
|-----|------------------|---------------------|
|-----|------4---4-----4-|-2----4h5----4---2---|
|-2-4-|-5----------------|---------------------|
|-----|------------------|---------------------|
|-----|------------------|---------------------|


  H             Q   E E   Q    E E Q   Q
|-----------------------|-------------------|
|-----------------------|-------------------|
|---------------------2-|-4-----------------|
|-5-----------------5---|------5-4-2---5----|
|-----------------------|-------------------|
|-----------------------|-------------------|


  Q.           E Q   Q     H             +E  S S S S S S
|------------------------|-------------------------------|
|------------------------|-------------------------------|
|-2----------------------|-------------------------2-4-5-|
|--------------4-2---0---|-2-------------(2)-2-4-5-------|
|------------------------|-------------------------------|
|------------------------|-------------------------------|


  H.          Q    H.                +E  T S.
|----------------|------------------------------|
|-3--------------|------------------------------|
|-------------4--|-4-----------------(4)-5p4----|
|----------------|------------------------------|
|----------------|------------------------------|
|----------------|------------------------------|


  E. S Q  Q  Q    H         E E E E
|---------------|-------------------|
|---------------|-------------------|
|-2--4-5--4--2--|-----------------2-|
|---------------|-5-----------4-5---|
|---------------|-------------------|
|---------------|-------------------|

                                    3/4
  Q      Q  Q.   S S   Q  Q  Q  Q    H.
|--------------------|-------------|-------*|
|--------------------|-------------|-------*|
|-4------------------|-------------|-------*|
|--------5--2----5s7-|-7--4--------|-------*|
|--------------------|-------7--5--|-------*|
|--------------------|-------------|-------*|




Guitar 2

       4/4
  Q     E. S E Q    Q  E   E. S E    Q   Q   E
|-----|--------0---------|-----------0---------|
|-0---|------------------|---------------------|
|-----|------------------|----2-4--------------|
|-----|----2-5-----------|---------------------|
|-----|-------------2----|-0-------------2-----|
|-----|-0----------------|---------------------|


  E T. T. T E Q   Q   E   E. S E E E E E E
|-------------0---------|----------------0--|
|-----------0-----------|--------------1----|
|---------0-------------|-------------------|
|------2----------------|----2-5-4---2------|
|---2-------------2-----|----------3--------|
|-0---------------------|-0-----------------|


  E  T. T. T E Q   Q   E   E T. T. T E Q     E   E   E
|--------------0---------|-------------0---------0-------|
|------------1-----0-----|-----------0-------0-------0---|
|----------2-------------|---------0---------------------|
|-------2----------------|------2------------------------|
|-0--0-------------------|-2-2---------------------------|
|------------------------|-------------------------------|


  E  E E Q  E Q    E  T. T. T E Q  E  Q
|------0-3----3--|--------------0-----0---------|
|------3-3----3--|------------0-0-----0---------|
|-0--------------|----------0-------------------|
|----0------0----|-------2---------2------------|
|----------------|----2-------------------------|
|----------------|-0----------------------------|


  H       H       E S S E Q   E E E
|---------------|---------3---3-0---|
|---------------|-----------------3-|
|---------------|-------5-5---------|
|---------------|-------5-----------|
|---------2-----|-3---3-------------|
|-1-------------|---3---------------|

                                    3/4
  E. T T Q  H          H     H       H.
|--------------------|-------------|-0-----*|
|--------------------|-------------|-0-----*|
|--------------------|-------------|-0-----*|
|----2h4h5--2--------|-4-----2-----|-2-----*|
|-----------3--------|-5-----2-----|-------*|
|-0------------------|-------------|-------*|

h - hammer on
p - pull off
s - slide

W - whole
H - half
Q - quarter
E - 8th
S - 16th
T - 32nd
+ - note tied to previous
. - note dotted
Login or Register to remove this ad.

2 comments on Assassin Cross of Sunset

Thanks for doing this, saved

Thanks for doing this, saved me the trouble of posting a request.

Tq

5

Nice