Ads

Credens Justitiam (Puella Magi Madoka Magica) Guitar Tab

Submitted: Jul 30, 2015 by a.christie.w

5
Average: 5 (7 votes)
Download | Listen
Game: Puella Magi Madoka Magica
Composer(s): Yuki Kajiura
Style: Arrangement, Fingerstyle

AutoScroll: Slow | Medium | Fast
#----------------------------------PLEASE NOTE---------------------------------#
#This file is the author's own work and represents their interpretation of the #
#song. You may only use this file for private study, scholarship, or research. #
#------------------------------------------------------------------------------##

                                CREDENS JUSTITIAM
                           As recorded by Yuki Kajiura

Arranged by A.Christie.W
Transcribed by A.Christie.W

Gtr I (E A D G B E) - 'Untitled'

This is my first attempt at arranging a guitar tab. Feedback/criticism is greatly appreciated.
I used a capo on the 4th fret, also.

  Q=124
 4/4
  Gtr I
  E E E E E E E E   H    Q  E E   E E Q  E E Q
|---------6-----6-|-4---------1-|-2---1---------|
|-2-----2-----2---|-6----2--4---|-2------2---4--|
|-3---3-----3-----|-5----3------|-3------1---1--|
|---3-------------|------3------|-----3----1----|
|-1---------------|-------------|---4-----------|
|-----------------|-------------|-2-------------|


  E E E E E E E E   E E E E H
|-2---1-----------|---------6----|
|-4---2-------4-2-|-2-------6----|
|-----------1-----|-3---3---6----|
|-------1-3-------|-3-3---3------|
|-----4-----------|-1------------|
|---4-------------|--------------|


  E E E E Q  E E   Q  E E Q  Q    E E E E Q  Q    E Q  E E Q  E
|-4------------1-|-2--1---------|---------------|-2------1------|
|-6-------2--4---|--------4--2--|---------------|-1------1------|
|-5-------1------|-3--3---3--3--|---------------|-1------1------|
|-----3------3---|-1----1-4--3--|-----1-3-4-----|---------------|
|---3---3--------|-----------1--|---1-----------|---------------|
|----------------|--------------|-1-------------|------4------4-|


  E E E E Q  E E   E E E E E E E E   E E E E Q.   E
|-2-------4------|---------0-------|-2-------3---------|
|-4-------4------|-3-------2-------|-3---3---5---------|
|-----1-3-5--0h1h|=2-------2-------|-2-------4---------|
|---1------------|-----0-------0---|-----0-------------|
|---------3------|---0---0---0---0-|---0---0------0----|
|----------------|-----------------|-------------------|


  E E E E E E Q    Q  E E Q  E E   Q  Q  H
|-------0-2------|-3--2-0-2------|----0-------|
|-----3-2-3---3--|-----------3---|-0-----2----|
|-----2-------2--|-4--2-0-2------|-0--0--2----|
|-0---0-------0--|-----------0---|----2-------|
|---0---0---0----|------0------0-|-2-----4----|
|----------------|---------------|-3----------|


  E E E E E E E E   E E E E E E E E
|-5---3---2---0---|---------0-------|
|-----------------|-3-------2-------|
|---2---0---------|-2-------2-------|
|-----------4---2-|-0---0-------0---|
|-----------------|---0---0---0---0-|
|-----------------|-----------------|


  E E E E E E E E   E E E E E E E E
|-2-------3-------|-------0-2-------|
|-3---3---5-------|-----3-2-3---3---|
|-2-------4-------|-----2-------2---|
|-----0-------0---|-0---0-------0---|
|---0---0---0---0-|---0---0---0---0-|
|-----------------|-----------------|


  E E E E E E E E   E E E E E E E E   E E E E E E E E
|-3---2-0-2---5---|-5---------------|-5---------------|
|-------------3---|-3---------------|-2---------------|
|-4---2-0-2-------|-4-------4-------|-2---------------|
|-----0-------0---|-----------------|-----------------|
|---0---0---0---0-|-----0-------0---|-----0---0-----0-|
|-----------------|---0---0---0---0-|---0---0---0-0---|


  E E E E E E E E   E E E E E E E E   E E E E E E E E   E E E E E E E E
|-0-------2-------|-4---0---5-------|-----0-2-4---0---|-5---4-2-4---0---|
|-0-------4-------|-5-------4-------|-----0-4-5---0---|-2---0---0-------|
|---------4-------|-4-------4-------|-----------------|-------2---------|
|-----2-------2---|-------------2---|-----2-------2---|-----2-------2---|
|---2---2---2---2-|---2---2---2---2-|---2---2---2---2-|---2---2---2---2-|
|-0-------0-------|-0-------0-------|-0-------0-------|-0-------0---0---|


  E E E E E E E E   E E E E E E E E
|-----2-----------|-7---5---4---2---|
|-2-------4-------|---0-------------|
|-2---4---4-------|-------2---1-----|
|-----4-----------|-------4-------4-|
|-4-2-0-------2---|-----2-------2---|
|-------0---2---2-|---2-------2---2-|


  E E E E E E E E   E E E E Q  E E   E E E E E E E E
|-0-------2-------|-4-------5------|-----0-2-4---0---|
|-0-------4-------|-5---5---7--2-0-|-0---0-4-5---0---|
|---------4-------|-4-------6------|-----------------|
|-2---2-------2---|-----2------2---|-----2-------2---|
|---2---2---2---2-|---2---2------2-|---2---2---2---2-|
|-0-------0-------|-0-------0------|-0-------0-------|


  E E E E E E E E   E E E E E E E E   E E E E E E Q    E E E E E E E E
|-5---4-2-4---0---|-5-------4-------|----------------|-0-------0-------|
|-2-----------2---|-5-------4-------|---------1---4--|-2---2-4---4-2---|
|-----4---4-------|-6-------5-------|-1---1-3-1---4--|-1-----------1---|
|-----2-2-----2---|-------------6---|---1---1---1-4--|-------------2---|
|---2---2---2---2-|-0---0-----6---6-|----------------|-4---4---4-------|
|-0-------0-------|---0---0-4-------|---------4------|---4-----------4-|


  E E E E E E E E   E E E E E E E E
|---------0---2-4-|-5---4---0---2---|
|-0-------0-----0-|-5-------2---4---|
|-1-------1---2---|-6---------------|
|-1-1---1---1---1-|-7---------------|
|-----------------|-7---0---2---2---|
|-----4---4-------|-5-0---0---2---2-|


  E E E E E E Q    E E E E H      E E E E E E E E
|-5---4-------2--|-0-------9----|-7-----0-0---2-4-|
|-4---5-------4--|-2-------9----|-9-------0-------|
|-------------4--|-1-------9----|-8-------1-------|
|-----2-------2--|--------------|-6-1---1---1---1-|
|---2---2---2----|-4---4--------|-----------------|
|-0-------0---0--|---4---4-9----|-----4---4---4---|


  E E E E E E E E   E E E E E E E S S    H    H
|-5-------4-------|-2-------0-----5-7-|--9----7----|
|-5-------5-------|-2-------2---------|-10----9----|
|-6-------4-------|-2-------2---------|------------|
|-4---4-------4---|-4---4-------4-----|------------|
|---4---4---4---4-|---4---4---4---4---|------------|
|---------2-------|-2-------2---------|------------|


  E E E E E E E E   E E E E E E E E   E E E E E E E E
|-5-------4-------|-5-------4-------|-5-------7---2---|
|-7-------5-------|-5-------5-------|-5-------5-------|
|-----------------|-4-------4-------|-4---------------|
|-4---4---4---4---|-----------------|-----------------|
|---4---4---4---4-|-2---2---2---2---|-2---2-------2---|
|-----------------|---2---2---2---2-|---2---2---2---2-|


  |---3---|   |---3---|     |---3---|   |---3---|
  Q   Q   Q   Q   Q   Q     Q   Q   Q   Q   Q   Q     H    H      Q  Q  H
|-------------------------|-------------------------|-0----2----|-4--0--5----|
|-2---2---2---2---2---2---|-4---4---4---4---4---4---|-0----4----|-5-----7----|
|-4---4---4---4---4---4---|-4---4---4---4---4---4---|-x----4----|-4-----6----|
|-4---4---4---4---4---4---|-2---2---2---2---2---2---|-2----2----|-2----------|
|-2-----2-----2-----2-----|-2-----2-----2-----2-----|-2----2----|-2----------|
|---2-------2---2-------2-|---2-------2---2-------2-|-0----0----|-0-----0----|
  E E   E   E E E   E   E   E E   E   E E E   E   E


  Q  E E Q  Q    Q  E E Q  Q    Q.   E H      +W
|----0-2-4--0--|-5--4-2-4--0--|-2----4-4----|-(4)----*|
|----0-4-5--0--|----0---0-----|-4----5-5----|-(5)----*|
|-----------x--|-6----2-------|-4----4-4----|-(4)----*|
|-2---------2--|--------2-----|-2-----------|--------*|
|-2---------2--|--------------|-x-----------|--------*|
|-0--0---0--0--|-0------0-----|-0----0-0----|-(0)----*|


Duration Legend
---------------
W - whole; H - half; Q - quarter; E - 8th; S - 16th; T - 32nd; X - 64th; a - acciaccatura
+ - note tied to previous; . - note dotted; .. - note double dotted
Uncapitalized letters represent notes that are staccato (1/2 duration)
Irregular groupings are notated above the duration line
Duration letters will always appear directly above the note/fret number it represents the
duration for.  Duration letters with no fret number below them represent rests.  Multi-
bar rests are notated in the form Wxn, where n is the number of bars to rest for.  Low
melody durations appear below the staff

Tablature Legend
----------------
 h   - hammer-on
 p   - pull-off
 b   - bend
 pb  - pre-bend
 r   - bend release (if no number after the r, then release immediately)
 /\  - slide into or out of (from/to "nowhere")
 s   - legato slide
 S   - shift slide
  - natural harmonic
[n]  - artificial harmonic
n(n) - tapped harmonic
 ~   - vibrato
 tr  - trill
 T   - tap
 TP  - trem. picking
 PM  - palm muting
\n/  - tremolo bar dip; n = amount to dip
 \n  - tremolo bar down
 n/  - tremolo bar up
/n\  - tremolo bar inverted dip
 =   - hold bend; also acts as connecting device for hammers/pulls
 <>  - volume swell (louder/softer)
 x   - on rhythm slash represents muted slash
 o   - on rhythm slash represents single note slash

Misc Legend
-----------
 |  - bar
||  - double bar
||o - repeat start
o|| - repeat end
*|  - double bar (ending)
 :  - bar (freetime)
 $  - Segno
 &  - Coda
Tempo markers -  = BPM(8/16=s8/s16), where s8 = swing 8ths, s16 = swing 16ths


***************************************************************************************
* Generated using Power Tab Editor by Brad Larsen - http://powertab.guitarnetwork.org *
***************************************************************************************
Login or Register to remove this ad.

3 comments on Credens Justitiam

Awesome!

I'm really suprised that no one commented yet, so I'll be the 1st one!

This is a really nice tab you got there, the only problem is that it's kinda hard >.<

Good job mate!

Thanks a lot :) yeah, it is

Thanks a lot :) yeah, it is really hard, once i get better at this stuff i'll see if i can make a more simple version, i'd love to see this theme played on an acoustic.

5 star, from omar

5

5 star,

from omar