Katamaresort (Me and My Katamari) Guitar Tab

Submitted: Jul 06, 2008 by Kabukibear (Last updated: Nov 27, 2009)

5
Average: 5 (1 vote)
Download | Listen
Game: Me and My Katamari
Composer(s): Yu Miyake
Style: Fingerstyle, Transcription

AutoScroll: Slow | Medium | Fast
Katamaresort                                   
~Me and My Katamari~
Composed by: Yu Miyake
Tabbed by: Justin Lincoln


      W                 3x  H        E.  S E  E   
E||---------------------||-----------------------|
B||---------------------||-----------------7--8--|
G||*-------------------*||---------------7-------|
D||*-------------------*||-----------------------|
A||---------------------||-----------------------|
E||---------------------||-----------------------|


     E.   S  S S E  E   E  E   E      E.   E.  E  E.   S  E   E   
|--------10--L---------10--9------|------------------------------|
|---10------------------------12--|--12---10----------12-10------|
|*--------------------------------|--------------------------12--|
|*--------------------------------|------------------------------|
|---------------------------------|------------------------------|
|---------------------------------|------------------------------|

                             1st ending ---------------,
   E.  E.  E  E.  S  E   E     E.  E  Q    E  S E  E     
----------------------------|--------------------------||
----------------------------|-------------------7--8---||
--11----------------12--11--|--9---7----------7-------*||
-------9----------9---------|-------------------------*||
----------------------------|--------------------------||
----------------------------|--------------------------||

  2nd ending ------------
                            ^                                                   
  E.  E  Q    E  S E  E     E.  E.  E  E.  E.  E     E.  S E   S   H         S  
-------------------0--1--|--2---0------0-------5--|----------------------------|
-----------------3-------|--3--------------3------|--5---3-L-------------------|
--9---7------------------|--0-------0-------------|---------------(5)--------L-|
-------------------------|------------------------|-----------(3)--------------|
-------------------------|------------------------|----------------------------|
-------------------------|------------------------|----------------------------|


    E.  E.  E  Q    E  E     S E  S Q    S E.  E  E     E.  E.  E  Q    E  E   
-----------------------3--|--------------------0--1--|--2---0-----------0--7--|
--2g4---3---L-------1-----|--1-1-----------3---------|------------------------|
--------------------------|--------------------------|------------------------|
--------------------------|--------------------------|------------------------|
--------------------------|--------------------------|------------------------|
--------------------------|--------------------------|------------------------|


  E.  E.  E  Q    Q       Q.     S S E  S E  E  S    H        H         
--0--------------------|--1-------------3---------|--------------------|
------3---L--L---------|---------1-2-3----3-------|--------------------|
-----------------------|---------------------3--5-|--L-----------------|
-----------------------|--------------------------|--------------------|
-----------------------|--------------------------|--------------------|
-----------------------|--------------------------|--------------------|


  H        E.  S E  E      E.   S  S S E  E   E  E   E   
-----------------------|-------10--L---------10--9------|
-----------------7--8--|--10------------------------12--|
---------------7-------|--------------------------------|
-----------------------|--------------------------------|
-----------------------|--------------------------------|
-----------------------|--------------------------------|


      E.   E.  E  E.   S  E   E      E.  E.  E  E.  S  E   E   
---------------------------------|----------------------------|
--11g12---10----------12-10------|----------------------------|
-----------------------------12--|--11----------------12--11--|
---------------------------------|-------9----------9---------|
---------------------------------|----------------------------|
---------------------------------|----------------------------|


  E.  E  Q    E  S E  E      E.   S  S S E  E   E  E   E   
-------------------------|-------10--L---------10--9------|
-------------------7--8--|--10------------------------12--|
--9---7----------7-------|--------------------------------|
-------------------------|--------------------------------|
-------------------------|--------------------------------|
-------------------------|--------------------------------|


      E.   E.  E  E.   S  E   E      E.  E.  E.  S  S  S  E   E   
---------------------------------|-------------------------------|
--11g12---10----------12-10------|-------------------------------|
-----------------------------12--|--11-------------------12--11--|
---------------------------------|-------9-------9p-8h-9---------|
---------------------------------|-------------------------------|
---------------------------------|-------------------------------|


                            ^                                                   
  E.  E  Q    S E  E  E     E.  E.  E  E.  E.  E     E.  S E   S   H         S  
-------------------0--1--|--2---0------0-------5--|----------------------------|
----------------3--------|--3--------------3------|--5---3-L------(3)--------L-|
--9---7------------------|--0-------0-------------|---------------(2)--------L-|
-------------------------|------------------------|-----------(3)--------------|
-------------------------|------------------------|----------------------------|
-------------------------|------------------------|----------------------------|


  E.  E.  E  Q    E  E     S E  S Q    S E.  E  E     E.  E.  E  Q    E  E   
---------------------3--|--------------------0--1--|--2---0-----------0--7--|
--4---3---L-------1-----|--1-1-----------3---------|------------------------|
------------------------|--------------------------|------------------------|
------------------------|--------------------------|------------------------|
------------------------|--------------------------|------------------------|
------------------------|--------------------------|------------------------|


  E.  E.  E  Q    Q       Q.     S S E  S E  E  S    H        Q    E  E   
--0--------------------|--1-------------3---------|----------------------|
------3----------------|---------1-2-3----3-------|----------------------|
-----------------------|---------------------3--5-|--L----------------7--|
-----------------------|--------------------------|----------------------|
-----------------------|--------------------------|----------------------|
-----------------------|--------------------------|----------------------|


  E  S E  E  E   E.     E  E      E  S E  E  E  E  S E  E   
---------------------8g10--8--|-----------9--8--L----------|
----------6--7--10------------|--11--9-8-------------6--7--|
--8--7-8----------------------|----------------------------|
------------------------------|----------------------------|
------------------------------|----------------------------|
------------------------------|----------------------------|


  E  S E  E  E.  Q    S S    E  S E  E  Q      Q    S    H        H         
----------8---------------|----------6----------------|--------------------|
--8--8-8-----8---L----6-7-|--8--8-8-----8----5g7----L-|--L-----------------|
--------------------------|---------------------------|--------------------|
--------------------------|---------------------------|--------------------|
--------------------------|---------------------------|--------------------|
--------------------------|---------------------------|--------------------|


                                                   |----3----|              
    W                 7x  H        E.  S E  E      Q    Q    Q    H         
|---------------------||-----------------------|---------------------------|
|---------------------||-----------------7--8--|--10----7------------------|
|*-------------------*||---------------7-------|-------------7----L--------|
|*-------------------*||-----------------------|---------------------------|
|---------------------||-----------------------|---------------------------|
|---------------------||-----------------------|---------------------------|


                                             >     >           
  Q      S S S S   E  S E  S S S    S. E  E  E  E  E  E  E  T  
-------4g5-7-7-5-5g8--7-5--7---5-|--L--5----------------------|
---------------------------------|--------8--8----------------|
---------------------------------|--------------7--7----------|
---------------------------------|--------------------9--9--L-|
---------------------------------|----------------------------|
---------------------------------|----------------------------|


  E.   S  E  T   T S E   S S E   S S    E  E  H.            
-------------------------------------|---------------------|
-------------------------------------|---------------------|
------10--L--9h-10-9-7---------------|---------------------|
--8---------------------10-8-7-------|-----7---------------|
--------------------------------10-8-|---------------------|
-------------------------------------|---------------------|

      *Play very lightly over frets here*
  E.  S S S S S S S  S E  E  S    E  S S H.            
-------------------------------|----------------------|
--------------7-----10-8--7----|----------------------|
----------7-9-7-9-L-11-9--7--7-|--L--7----------------|
--------7--------------------9-|--L--9----------------|
------9------------------------|----------------------|
-------------------------------|----------------------|


  S   E  S S S S S S S S S S S S S    S E  E  E  S S S S S S S S S  
----7g8--7-6---5-3---------2-3-4-5-|----3--1--0--3-L-0-------------|
-------------7---------0-3---------|-------------------1-0-------1-|
---------------------3-------------|-----------------------3-0-2---|
-----------------------------------|-------------------------------|
-----------------------------------|-------------------------------|
-----------------------------------|-------------------------------|


                                    |-3-|            |---3--|                
  E  S E  S E  S E  S E  S S    E   S S S  S S S S   S   S  S  S S S  S S S  
--0--0-----------------------|--------------------------------10-9-8--------|
-----------------------------|-----------------------------11--------11-8-9-|
-------5--5------------------|----------7-10-8---7------12------------------|
------------7--7-------------|--------8------------(12)---------------------|
-----------------8--8-7--7-6-|--L--10---------------------------------------|
-----------------------------|----------------------------------------------|


   E   S E  S  S   E    S   E   S S S S    S S  S S S S S S S S S S S S E   
----------------------------------------|----5-10-7-L-----5----------------|
--10----------------------------------5-|--7----------7-5---7---0-5-3------|
------10-7--L-------------------5-7-8---|---------------------7-------2----|
------------------(7)------(7)----------|-------------------------------4--|
--------------(6)------(6)--------------|----------------------------------|
----------------------------------------|----------------------------------|


  S S S S S S S S E  S   S Q       Q    S S  S  S  S S S  S  S E  S  
----3-0-------------------------|-----------------------------------|
--------1-L-3-1-----------------|----------------------8------------|
----------------0---------------|--------------------8---10--L-8--7-|
--L---------------2--0-2g3-L----|-----------------10----------------|
--------------------------------|---------8-10-11-------------------|
--------------------------------|-----------------------------------|


  S S S S E  S S  S E   S E  E     E  S E  E  E   E.   E  E   
-------------8-6-10-6S--5-------|---------------------10--8--|
----8-6-8-6------------------3--|--4--3-4--6--7--10---11--9--|
--L-----------------------------|--5--3-5--7--8--11----------|
--------------------------------|----------------------------|
--------------------------------|----------------------------|
--------------------------------|----------------------------|


   E   S E  E  Q    S E  E     E  S E  E  Q    E.  S S  
------------9--8----L-------|----------8---------------|
--11---9-8--9---------6--7--|--8--8-8--8--8----L---6-7-|
--12--10-8-----9----L-5--7--|--8--8-8-----8----L---5-6-|
----------------------------|--------------------------|
----------------------------|--------------------------|
----------------------------|--------------------------|


  E  S E  E  Q    Q    S    E  S E  E  E   E.   E  E   
----------6--------------|---------------------10--8--|
--8--8-8--6--8----7----L-|--4--3-4--6--7--10---11--9--|
--7--7-7-----7----6----L-|--5--3-5--7--8--11----------|
-------------------------|----------------------------|
-------------------------|----------------------------|
-------------------------|----------------------------|


   E   S E  E  Q    S E  E     E  S E  E  Q    E.  S S  
------------9--8----L-------|----------8---------------|
--11---9-8--9---------6--7--|--8--8-8--8--8----L---6-7-|
--12--10-8-----9----L-5--6--|--8--8-8-----8----L---5-6-|
----------------------------|--------------------------|
----------------------------|--------------------------|
----------------------------|--------------------------|


  E  S E  E  Q      Q    S    W                  
----------6----------------|-------------------||
--8--8-8--6--8----5g7----L-|--L----------------||
--7--7-7-----7----4g6----L-|--L----------------||
---------------------------|-------------------||
---------------------------|-------------------||
---------------------------|-------------------||




Duration Legend
---------------
W - whole
H - half
Q - quarter
E - 8th
S - 16th
T - 32nd
X - 64th
. - note dotted
|-n-|  - n-tuplets


Tablature Legend
----------------
L - tied note
g - grace note
(n) - ghost note
> - accentuded note
h - hammer on
p - pull off
S - shift slide
^ - brush up
1st ending/ 2nd ending - Play the 1st ending then on the repeat 
                         jump 1st ending and play 2nd ending
Login or Register to remove this ad.