Ads

Will to Live (Princess Mononoke) Guitar Tab

Submitted: Oct 15, 2012 by Basisti94

5
Average: 5 (3 votes)
Download | Listen
Game: Princess Mononoke
Composer(s): Joe Hisaishi
Style: Arrangement, Fingerstyle

AutoScroll: Slow | Medium | Fast
                                Will To Live / Ikiro
                                
Princess Mononoke / Mononoke Hime OST
Composed by Joe Hisaishi
Arranged for guitar by Basisti94 (Miro Laaksonen)
13.10.2012

     H.            E   E      Q     Q     E   Q     E   
E||-----------------------|---8----12----10---------8--|
B||---------------10--12--|--10----13----12--12----10--|
G||----------------9--12--|------------------12--------|
D||-----------------------|----------------------------|
A||-----------------------|----------------------------|
E||-----------------------|----------------------------|


   H        Q     E   E      Q     Q     E   Q     E   
---8---------------------|---8----12----10---------8--|
--10-------------10--12--|--10----13----12--12----10--|
------------------9--12--|------------------12--------|
-------------------------|----------------------------|
-------------------------|----------------------------|
-------------------------|----------------------------|

                                     
                             ^          ^              ^                    
   Q.     S  S Q    E  E     Q    E  E  E  E  E  E     H        Q    E  E   
---8-------------------3--|----------3-----0--------|----------------5--7--|
--10------8----8----5-----|--3----5-----3-----------|--5-------------5--8--|
------------10------------|--5----------5--------5--|--4--------5----------|
--------------------------|--3----------5-----7-----|--5-------------------|
--------------------------|-------------------------|--3-------------------|
--------------------------|-------------------------|----------------------|


   ^                  
   W                  
---8----------------||
--10----------------||
---9----------------||
--10----------------||
---8----------------||
--------------------||




Duration Legend
---------------
W - whole
H - half
Q - quarter
E - 8th
S - 16th
. - note dotted



Tablature Legend
----------------
L - tied note
x - dead note
g - grace note
(n) - ghost note
> - accentuded note
NH - natural harmonic
AH - artificial harmonic
TH - tapped harmonic
SH - semi harmonic
PH - pitch harmonic
h - hammer on
p - pull off
b - bend
br - bendRelease
pb - preBend
pbr - preBendRelease
brb - bendReleaseBend
\n/ - tremolo bar dip
\n - tremolo bar dive
-/n - tremolo bar Release up
/n\ - tremolo bar inverted dip
/n - tremolo bar return
-\n - tremolo bar Release down
S - shift slide
s - legato slide
/ -  slide into from below or out of upwards
\ -  slide into from above or out of downwards
~ - vibrato
W - wide vibrato
tr - trill
TP - tremolo picking
T - tapping
S - slap
P - pop
< - fade in
^ - brush up
v - brush down
Login or Register to remove this ad.