Ads

Requiem (8 String) (Princess Mononoke) Guitar Tab

Submitted: Oct 25, 2014 by scarecrowlol (Last updated: Oct 25, 2014)

5
Average: 5 (1 vote)
Download | Listen
Game: Princess Mononoke
Composer(s): Joe Hisaishi
Style: Arrangement, Fingerstyle

AutoScroll: Slow | Medium | Fast
Title: Requiem
SubTitle: Princess Mononoke
Artist: Joe Hisaishi
Tabber: Mitch Jackson
Tempo = 62
T/S = 4/4



   ♪♫•*¨*•.¸¸ CAPO 1 ¸¸.•*¨*•♫♪ 



THERE ARE A FAIR AMOUNT OF TEMPO CHANGES. 
LISTEN TO THE MP3 TO GET AN IDEA OF HOW THE PIECE FLOWS.


     E  E  E  E  H                W                            E  E  E  E  H                W
E |----------------------------|----------------------------|----------------------------|----------------------------|
B |----------------------------|----------------------------|----------------------------|----------------------------|
G |--------------4-------------|--L-------------------------|--------------2-------------|--L-------------------------|
D |-----------2----------------|--L-------------------------|-----------0----------------|--L-------------------------|
A |--------6-------------------|--L-------------------------|--------4-------------------|--L-------------------------|
E |-----4----------------------|--L-------------------------|-----2----------------------|--L-------------------------|
B |--2-------------------------|--L-------------------------|--0-------------------------|--L-------------------------|
B |----------------------------|----------------------------|-----0----------------------|--L-------------------------|

                          
     E  E  E  E  E  E  Q          W                            E  E  E  E  E  E  E  E       W
  |-----------4--4--2--4-------|--L-------------------------|----------------------------|----------------------------|
  |--------2-------------------|--L-------------------------|-----------------2--2--0----|--2-------------------------|
  |----------------------------|----------------------------|----------------------------|----------------------------|
  |-----------2----------------|--L-------------------------|-----------0--4-------------|----------------------------|
  |----------------------------|----------------------------|--------4-------------------|----------------------------|
  |-----4----------------------|--L-------------------------|-----2----------------------|----------------------------|
  |--2-------------------------|--L-------------------------|--0-------------------------|----------------------------|
  |----------------------------|----------------------------|-----0----------------------|----------------------------|

     ^                                                         ^                                              ^ 
     W                            W                            W                            H.                Q
  |--3-------------------------|--L-------------------------|--5-------------------------|--L-----------------5-------|
  |--3-------------------------|--L-------------------------|--5-------------------------|--L-----------------5-------|
  |--2-------------------------|--L-------------------------|--4-------------------------|--L-----------------4-------|
  |--0-------------------------|--L-------------------------|--2-------------------------|--L-----------------2-------|
  |--2-------------------------|--L-------------------------|--2-------------------------|--L-----------------2-------|
  |--0-------------------------|--L-------------------------|--2-------------------------|--L-----------------2-------|
  |----------------------------|----------------------------|----------------------------|----------------------------|
  |----------------------------|----------------------------|----------------------------|----------------------------|

     ^                                                         ^
     E.  E  E  Q     S E  E       H.                E  E       W                            W
  |--0---0--2--3-----L-5--7----|--L-----------------5--3----|--2-------------------------|--L-------------------------|
  |--0-------------------------|----------------------------|--3-------------------------|--L-------------------------|
  |--0-------------------------|----------------------------|--6-------------------------|--L-------------------------|
  |--2-------------------------|----------------------------|--4-------------------------|--L-------------------------|
  |--3-------------------------|----------------------------|--2-------------------------|--L-------------------------|
  |--3-------------------------|----------------------------|--2-------------------------|--L-------------------------|
  |--1-------------------------|----------------------------|--0-------------------------|--L-------------------------|
  |----------------------------|----------------------------|--0-------------------------|--L-------------------------|

                                            
     S S S S S S S S S S S S S S S S      S S S S S S S S S S S S S S S S      S S S S S S S S S S S S S S S S 
  |------------------------------------|------------------------------------|------------------------------------|
  |--0-0---------0-0---------0-0-------|------0-0---------0-0---------0-0---|----------0-0---------0-0-----------|
  |------------------------------------|------------------------------------|------------------------------------|
  |------4-4---------4-4---------4-4---|----------4-4---------4-4-----------|--4-4---------4-4---------4-4-------|
  |----------2-2---------2-2-----------|--2-2---------2-2---------2-2-------|------2-2---------2-2---------2-2---|
  |------------------------------------|------------------------------------|------------------------------------|
  |--0---------------------------------|------------------------------------|--1---------------------------------|
  |--0---------------------------------|------------------------------------|--1---------------------------------|

     ^                                                         ^                            ^           FERMATA
     W                            W                            H           H                H           H
  |----------------------------|----------------------------|----------------------------|----------------------------|
  |--0-------------------------|--L-------------------------|----------------------------|----------------------------|
  |--0-------------------------|--L-------------------------|----------------------------|----------------------------|
  |--2-------------------------|--L-------------------------|--4-----------2-------------|--2-----------0-------------|
  |--3-------------------------|--L-------------------------|--2-------------------------|--0-------------------------|
  |--3-------------------------|--L-------------------------|--0-------------------------|--1-------------------------|
  |--1-------------------------|--L-------------------------|--0-------------------------|--3-------------------------|
  |--1-------------------------|--L-------------------------|----------------------------|----------------------------|

     ^                                  ^                                                         ^        ^       
     Q.       E  E  E  Q          E  E  Q     H                W                            Q     Q.       Q.
  |--------------------2-------|--4-------------------------|----------------------------|----------------------------|
  |--------------4--5----------|-----5--2-----0-------------|----------------------------|----------------------------|
  |----------------------------|----------------------------|----------------------------|----------------------------|
  |-----------6----------------|----------------------------|--4-------------------------|--------4--------5----------|
  |--6-------------------------|--------4-------------------|----------------------------|--------2--------2----------|
  |--4-------------------------|--------2-------------------|----------------------------|--------2--------3----------|
  |--2-------------------------|--------0-------------------|----------------------------|--0--------------0----------|
  |----------------------------|--------0-------------------|----------------------------|--------0--------0----------|

     ^           ^         
     H           H                H           H                W                            H           Q     Q
  |----------------------------|----------------------------|----------------------------|----------------------------|
  |--------------0-------------|--L-------------------------|----------------------------|--------------------3-------|
  |--------------0-------------|--L-----------2-------------|--L-------------------------|--------------0-------------|
  |--7-----------2-------------|--L-------------------------|----------------------------|--------------------2-------|
  |--0-----------2-------------|--L-------------------------|----------------------------|----------------------------|
  |--5-----------3-------------|--L-------------------------|----------------------------|--0-------------------------|
  |--0-----------1-------------|--L-------------------------|----------------------------|----------------------------|
  |--0-----------1-------------|--L-------------------------|----------------------------|----------------------------|
  
  2/4              4/4
                      ^                            ^
     Q     Q          H           H                H           H                W
  |----------------|----------------------------|----------------------------|----------------------------||
  |--2-------------|--1-----------0-------------|----------------------------|----------------------------||
  |--------2-------|--2-------------------------|--4-----------3-------------|--L-------------------------||
  |----------------|--0-------------------------|--2-------------------------|--L-------------------------||
  |----------------|--3-------------------------|--2-------------------------|--L-------------------------||
  |----------------|----------------------------|----------------------------|----------------------------||
  |----------------|--3-------------------------|--2-------------------------|--L-------------------------||
  |----------------|----------------------------|----------------------------|----------------------------||

Login or Register to remove this ad.

2 comments on Requiem (8 String)

How did hslesperance end up

How did hslesperance end up as the tabber lol? xD

Sorry, forgot to change it

Sorry, forgot to change it