Ads

Kodamas (Princess Mononoke) Guitar Tab

Submitted: Oct 23, 2014 by scarecrowlol

5
Average: 5 (7 votes)
Download | Listen
Game: Princess Mononoke
Composer(s): Joe Hisaishi
Style: Arrangement, Fingerstyle, Natural harmonics

AutoScroll: Slow | Medium | Fast
Title: Kodamas
SubTitle: Princess Mononoke
Artist: Joe Hisaishi
Tabber: Mitch Jackson
Tempo = 90
T/S = 4/4

         

     E  E  E  E  H                E  E  E  E  H                E  E  E  E  H                E  E  E  E  H
E |--------------2-------------|--------------2-------------|--------------2-------------|--------------2-------------|
B |--------1--3----------------|--------1--3----------------|-----------2----------------|-----------2----------------|
G |-----0----------------------|-----0----------------------|--------4-------------------|--------4-------------------|
D |----------------------------|----------------------------|-----4----------------------|-----4----------------------|
A |--3-------------------------|--3-------------------------|--2-------------------------|--2-------------------------|
E |----------------------------|----------------------------|----------------------------|----------------------------|

                                                          
     E  E  E  E  E  Q.            E  E  E  E  E  Q     E       E  E  E  E  H                E  E  E  E  H
  |-----3--2-------------------|-----3--2-------------------|--2--3--2-----2-------------|--------------2-------------|
  |--------1--3-----0----------|--------1--3-----0-----3----|-----------3----------------|-----------2----------------|
  |-----0--------2-------------|-----0--------2-------------|--------4-------------------|--------4-------------------|
  |----------------------------|----------------------------|-----4----------------------|-----4----------------------|
  |--3-------------------------|--3-------------------------|--2-------------------------|--2-------------------------|
  |----------------------------|----------------------------|----------------------------|----------------------------|

                                                          
     E  E  E  E  E  Q.            E  E  E  E  E  Q     E       E  E  E  E  Q.       E       E  E  E  E  H
  |-----3--2-------------------|-----3--2-------------------|--2--3--5-----2-------------|--------------2-------------|
  |--------1--3-----0----------|--------1--3-----0-----3----|-----------2-----------3----|--3--------2----------------|
  |-----0--------2-------------|-----0--------2-------------|----------------------------|-----2--4-------------------|
  |----------------------------|----------------------------|-----4----------------------|-----4----------------------|
  |--3-------------------------|--3-------------------------|--2-------------------------|--2-------------------------|
  |----------------------------|----------------------------|----------------------------|----------------------------|

                                                          
     E  E  E  E  E  E  E  E       E  E  E  E  Q.       E       E  E  E  E  E  E  E  E       E  E  E  E  H   
  |--0-----------2--0--3--0----|--------------2-------------|--------------2-----0-------|--------------2-------------|
  |--0-----1--3----------------|--3--0-----3----------------|--3--------2-----3-----3----|-----------2----------------|
  |-----0----------------------|-----0--2--------------2----|--------4-------------------|--2-------------------------|
  |----------------------------|----------------------------|-----4----------------------|-----4--4-------------------|
  |--3-------------------------|--3-------------------------|--2-------------------------|--2-------------------------|
  |----------------------------|----------------------------|----------------------------|----------------------------|

                                                          
     E  E  E  E  H                E  E  E  E  Q     E  E       E  E  E  E  Q     Q          E  E  E  E  H 
  |--------------0-------------|--------------0-------------|--------------0-----5-------|--2-------------------------|
  |--------0--3----------------|--------0--3--2-------------|--0--------0----------------|--------------3-------------|
  |--0--2----------------------|-----2--------------0--2----|--------2-------------------|--------2--4----------------|
  |-----2----------------------|-----0----------------------|----------------------------|----------------------------|
  |--0-------------------------|----------------------------|-----4----------------------|-----4----------------------|
  |----------------------------|--3-------------------------|--2-------------------------|--2-------------------------|

  1/4        4/4
     E  E       E  E  E  E  H                E  E  E  E  Q     E  E       E  E  E  E  H                E  E  E  E  Q     E  E
  |----------|----------------------------|----------------------------|----------------------------|----------------------------|
  |----------|--0-------------------------|----------------------------|--0-------------------------|----------------------------|
  |--0--2----|-----2--------0-------------|--------------0-----0--2----|-----2--------0-------------|--------------0-----0--2----|
  |----------|-----0-----0----------------|-----0-----0----------------|-----0-----0----------------|-----0-----0----------------|
  |----------|----------------------------|----------------------------|----------------------------|----------------------------|
  |----------|--3-----3-------------------|--3-----3-------------------|--3-----3-------------------|--3-----3-------------------|

                                                          
     E  E  E  E  H                E  E  E  E  Q     Q          E  E  E  E  H                E  E  E  E  Q     E  E
  |----------------------------|--------------3-----0-------|-----0----------------------|--------------3-----0--0----|
  |--0-------------------------|-----1--3-------------------|--3-------------------------|-----1--3-------------------|
  |-----2--------0-------------|--2-----------0-------------|--------2-----0-------------|--2-----------0-------------|
  |-----0-----0----------------|-----0-----0----------------|-----0-----0----------------|-----0-----0----------------|
  |----------------------------|----------------------------|----------------------------|----------------------------|
  |--3-----3-------------------|--3-----3-------------------|--3-----3-------------------|--3-----3-------------------|

                                                          
     E  E  E  E  Q     E  E       E  E  E  E  Q     E.  S      S S S Q.       Q..            W      
  |-----0--5-------------------|----------------------------|-----------------------------|----------------------------|
  |--3-------------------------|--0-------------------------|----3------------------------|----------------------------|
  |--------------0-----0--2----|-----2--------0-------------|--5---3-5--------------------|----------------------------|
  |-----0-----0----------------|-----0-----0------------3---|-----------------------------|----------------------------|
  |----------------------------|--------------------3-------|-----------------3-----------|--L-------------------------|
  |--3-----3-------------------|--3-----3-------------------|-----------------------------|----------------------------|

  3/4 72BPM                                                 
     H.                     H.                     Q     Q     Q          Q     Q     Q          H           E  E
  |-<12>-----------------|----------------------|----------------------|----------------------|----------------------|
  |-<12>-----------------|--0-------------------|----------------------|--0-------------------|-----------------0----|
  |----------------------|--2-------------------|--2-------------------|--2-----------0-------|--L-------------------|
  |----------------------|----------------------|--------3-----0-------|--2-----4-------------|--------------3-------|
  |----------------------|----------------------|----------------------|----------------------|----------------------|
  |----------------------|----------------------|----------------------|----------------------|----------------------|

  4/4                            3/4 78BPM                                               
     Q     S S S S S E.  E  E       H.                     H.                     H.
  |------------------------------|--0-------------------|-<12>-----------------|-<24>-----------------|
  |-------------------------0----|----------------------|-<12>-----------------|-<24>-----------------|
  |--0---------------------------|--0-------------------|----------------------|----------------------|
  |--------2-------------3-------|----------------------|----------------------|----------------------|
  |----------4p0---3h4-----------|----------------------|----------------------|----------------------|
  |--------------1---------------|----------------------|----------------------|----------------------|

                            ^                                             ^
     H.                     E  E  E  E  E  E       E  E  E  E  E  E       E  E  E  E  E  E       E  E  E  E  E  E
  |--2-------------------|----------------------|----------------------|----------------------|----------------------|
  |--2-------------------|--3-----------3-------|--------------3-------|--5-----------5-------|--------------5-------|
  |----------------------|--3-----3--------3----|-----------------3----|--5-----5--------5----|-----------------5----|
  |----------------------|--5--------5----------|--------5-------------|--7--------7----------|--------7-------------|
  |----------------------|--5--5----------------|-----5-----5----------|--7--7----------------|-----7-----7----------|
  |----------------------|--3-------------------|--3-------------------|--5-------------------|--5-------------------|


     E  E  H                H.
  |----------------------|----------------------||
  |----------------------|----------------------||
  |--------5-------------|--L-------------------||
  |--------7-------------|--L-------------------||
  |-----7----------------|--L-------------------||
  |--5-------------------|--L-------------------||


I've shortened the long sections where its just high synth.
Login or Register to remove this ad.