Ads

Eshi (Princess Mononoke) Guitar Tab

Submitted: Jul 14, 2013 by Colin_spade

5
Average: 5 (3 votes)
Download | Listen
Game: Princess Mononoke
Composer(s): Joe Hisaishi
Style: Arrangement, Fingerstyle

AutoScroll: Slow | Medium | Fast
Eshi                                       


                                                                     Joe Hisashi
Track 1

Piano Arr. Hitomi Kawata

Guitar Arr. Colin_spade


     S S S S E  E  E  E  S S S S    S S S S E  E  E  E  S S S S  
E||--------0---------------------|--------0---------------------|
B||--0-0-----------------0---0---|--0-0-----------------0---0---|
G||------2-----------------------|------2-----------------------|
D||------2------0-----2----2-0-2-|------2------0-----2----2-0-2-|
A||------------------------------|------------------------------|
E||--0-------------0-------------|--0-------------0-------------|


  S S S S E  E  E  E  E  E     E  E  E  E  Q       Q    Q    Q    Q     
--------0-------------------|-------------------|----------------------|
--0-0-----------------------|--3----------------|----------------------|
------2---------------------|-----2-------------|----------------------|
------2------0-----2-----0--|--------0----------|----------------------|
----------------------------|-------------------|--3---------2---------|
--0-------------0-----------|-------------------|----------------------|


  H             E  E  H.              E  E  H.                W                 
-----------||----------------------|----------------------||-------------------|
-----------||----------------------|----------------------||-------------------|
-----------||*---------------------|---------------------*||-------------------|
-----------||*--------2------------|--------3------------*||-------------------|
-----------||------2---------------|-----2----------------||--0----------------|
-----------||---0------------------|--0-------------------||-------------------|


  ^                   ^                                                    
  W                   W                   E  E  E  E     E  E  E  E  Q     
-------------------|--0----------------|-----------0--|-------------------|
--3----------------|--0----------------|--------------|--3-----1-----0----|
--5----------------|--7----------------|--------2-----|-----0-------------|
--7----------------|--0----------------|-----2--------|-----------3-------|
--3----------------|-------------------|--------------|-------------------|
-------------------|-------------------|--------------|-------------------|


  H.              H        H           W                   E  E  H.            
---------------|--------------------|-------------------|---------------------|
---------------|--------------------|-------------------|---------------------|
---------------|-----------0--------|--2----------------|---------------------|
--2------------|--3-----------------|--2----------------|--0-----2------------|
---------------|--3--------3--------|--2----------------|-----2---------------|
--0------------|--5--------5--------|-------------------|---------------------|


  E  E  Q    E  E  E  E     E  E  Q    E  E  E  E     E  E  Q    E  E  E  E   
----------------------0--|--0----------------------|----------------------0--|
-------------------------|--------3----------1--0--|-------------------1-----|
-------------------2-----|-------------------0-----|-----0--2-------2--------|
--2-----2-------2--------|--------3-------0--------|--2-----2----------------|
-----2-------------------|-----3-------------------|--0--3-------------------|
-------------------------|--1----------3-----------|-------------------------|


             ^             ^                                                  
  E  E  Q    Q    E  E     Q    E  E  E  E  E  E     E  E  E  E  E  E  E  E   
--3---------------0--3--|-------0--3--------------|-----------------------0--|
-------------3----------|--3----------1--0--------|--------------------------|
------------------------|----------------------0--|--2-----------0-----2-----|
--------2----0----------|--3----------0-----2-----|-----------------2--------|
-----2-------0----------|--5----------2-----------|--0-----2--3--------------|
--0---------------------|-------------0-----------|-----0--------------------|


                         ^                                           
  E  E  Q    H           W                   E  E  Q    E  E  E  E   
----------------------|-------------------|--7----------------5--3--|
--3----------1--------|--0----------------|--0----------------------|
----------------------|-------------------|--------0----L-----0-----|
--------3-------------|--2----------------|-------------------------|
-----3----------------|--0----------------|-----2----------2-----2--|
--1-------------------|-------------------|--0----------------------|


  E  E  Q    E  E  E  E     E  E  Q    E  E  E  E     H        Q    Q     
--2----------------------|--0-----7----------------|--0------------------|
-------------------------|-------------------------|-----------3---------|
--------3----L-----3-----|-------------------------|---------------------|
--4----------------------|-----4--0----L--4-----4--|---------------------|
-----4----------4-----4--|--2----------------5-----|--4-------------2----|
--2----------------------|-------------------------|---------------------|


  Q    Q    Q    Q       Q    Q    Q    Q       H        E  E   
----------------------|----------------------|-----------------|
--2---------0---------|-----------------0----|-----------------|
----------------------|--2---------0---------|--------------2--|
------------0----2----|--2----4---------0----|--4--------4-----|
--0----4--------------|----------------------|-----------------|
-----------------3----|--2-------------------|--2--------------|


  E  E  Q    E  E  E  E     E  E  Q    Q    E  E     E  E  Q    E  E  E  E   
-------------------------|------------------------|-------------------------|
--0-----3----2-----------|--0---------------------|--0-----3----2-----------|
--------0-------------2--|---------------------2--|--------0-------------2--|
-----0----------4--------|--------2----0----4-----|----------------4--------|
-------------0-----0-----|--2-----4----2----4-----|-----2----------4--0-----|
--3----------------------|-----2------------5-----|--0----------2-----------|


  ^            ^              ^          ^                                     
  E  E  E  S S E  E  E  E     Q    E  E  E  E  E  E     E  E  Q    Q    E  E   
--7--------5-3-5-----2--5--|--0----2--5--0--2--------|--2---------------2--5--|
---------------------------|-------------------0--3--|------------------------|
---------------------------|--0----------2-----------|------------------2--6--|
--0--------0---0--0--------|--0----------2-----------|--0-----2----0----------|
-----2--4------------------|-------------0-----------|-----0------------0-----|
--3------------2-----------|--3----------------------|------------------------|


  Q    H.             
--7-----------------||
--------------------||
--7-----------------||
--0----2------------||
-------0------------||
--3-----------------||




Duration Legend
---------------
W - whole
H - half
Q - quarter
E - 8th
S - 16th
T - 32nd
X - 64th
. - note dotted
|-n-|  - n-tuplets


Tablature Legend
----------------
L - tied note
x - dead note
g - grace note
(n) - ghost note
> - accentuded note
NH - natural harmonic
AH - artificial harmonic
TH - tapped harmonic
SH - semi harmonic
PH - pitch harmonic
h - hammer on
p - pull off
b - bend
br - bendRelease
pb - preBend
pbr - preBendRelease
brb - bendReleaseBend
\n/ - tremolo bar dip
\n - tremolo bar dive
-/n - tremolo bar Release up
/n\ - tremolo bar inverted dip
/n - tremolo bar return
-\n - tremolo bar Release down
S - shift slide
s - legato slide
/ -  slide into from below or out of upwards
\ -  slide into from above or out of downwards
~ - vibrato
W - wide vibrato
tr - trill
TP - tremolo picking
T - tapping
S - slap
P - pop
< - fade in
^ - brush up
v - brush down
Login or Register to remove this ad.