Ads

The Encounter (Princess Mononoke) Guitar Tab

Submitted: Jun 03, 2015 by JordanVS

5
Average: 5 (4 votes)
Download | Listen
Game: Princess Mononoke
Composer(s): Joe Hisaishi
Style: Arrangement, Fingerstyle

AutoScroll: Slow | Medium | Fast
The Encounter                                                       
Deai
Mononoke Hime
Joe Hisaishi 
JordanVS

T : 66
                                                                                             ^         ^           
     Q    Q    Q    Q       W                   Q    Q    Q    Q       H.           E  E     Q    Q    E  Q    E   
E||----------------------|-------------------|----------------------|---------------------|-------0---------------|
B||-------3--------------|--L----------------|-------0--------------|--L---------------0--|--1----1----3--0----1--|
G||------------2----4----|--L----------------|------------0----2----|--L------------2--0--|--2---------4--0----2--|
D||--2-------------------|--L----------------|--0-------------------|--L------------2-----|-----------------------|
A||----------------------|-------------------|----------------------|---------------------|-----------------------|
E||----------------------|--1----------------|----------------------|--3------------------|--1---------3----------|


  ^                      ^         ^             ^                                                   
  H        Q    E  E     Q    Q    E  Q    E     Q    E  S  S  Q    E  E     Q    E  E  E  E  E  E   
----------------------|-------0---------------|---------------------0--3--|-------0--3-----0--------|
--1----------------0--|--1----1----3--0----1--|--1------------------------|--3----------3--------1--|
--2-------------2--0--|--2---------4--0----2--|--2------------------------|--2----------4-----2-----|
--2-------------2-----|--0---------2----------|--3-------5p-3s-5----------|--3----------5-----------|
--0-------------------|-----------------------|---------------------------|-------------------------|
----------------------|-----------------------|----------------0----------|-------------------------|


  H        Q    E  E     Q    Q    E  Q    E     W                  
--0-------------------|-------0---------------|-------------------||
--0--------1-------0--|--1----1----3--0----1--|--1----------------||
--0-------------2--0--|--2---------4-------0--|--2----------------||
----------------2-----|---------------2-------|--2----------------||
--3-------------------|-----------------------|--0----------------||
----------------------|--1---------3----------|-------------------||




Duration Legend
---------------
W - whole
H - half
Q - quarter
E - 8th
S - 16th
T - 32nd
X - 64th
. - note dotted
|-n-|  - n-tuplets


Tablature Legend
----------------
L - tied note
p - pull off
S - shift slide
s - legato slide
^ - brush up
v - brush down
Login or Register to remove this ad.

1 comment on The Encounter

such lovely familiar notes.

5

such lovely familiar notes. thank you.