Ads

Eboshi Gozen (Princess Mononoke) Guitar Tab

Submitted: Dec 12, 2010 by diralark

4.8
Average: 4.8 (5 votes)
Download | Listen
Game: Princess Mononoke
Composer(s): Joe Hisaishi
Style: Arrangement, Fingerstyle

AutoScroll: Slow | Medium | Fast
                Eboshi Gozen      [ from Princess Mononoke ]

Music by Joe Hisaishi >> Arr. for piano by Hitomi Kawata >> tab by Diralark

ost soundtrack : http://www.youtube.com/watch?v=b84AxHCHXLk

Guitar,let ring, tempo 73

      E  E  Q.     E  E  E     E  E  Q.     E  E  E       E  E  Q.     E  E  E   
E||-------------------------|-------------------------||------------------------|
B||-------------------------|-------------------------||--3---------------------|
G||*------------------0-----|------------------0-----*||--2---------------------|
D||*--------4------------4--|--------4------------4--*||--2-----0---------2--0--|
A||------2---------2--------|-----2---------2---------||------------------------|
E||---0---------------------|--0----------------------||-----3---------3--------|


  E  E  Q.     E  E  E     E  E  Q.     E  E  E       E  E  Q.     E  E  E   
------------------------|------------------------||---0---------------0--3--|
--3---------------------|--0---------------------||---0---------------------|
--2---------------------|------------------0-----||*------------------0-----|
--2-----0---------2--0--|--4-----4------------4--||*--4-----4---------------|
------------------------|-----2---------2--------||------2---------2--------|
-----3---------3--------|--0---------------------||---0---------------------|


  E  E  E  E  E  E  E  E     E  E  E  E  E  E  E  E     E  E  E  E  E  S S E  E   
--5--5--5--5--5-----3--0--|--------0-----------0--3--|--5--5--5--5--5--7-5-3--0--|
--------------------------|--3-----------3-----0-----|---------------------------|
--------0-----0--------0--|--------2--2--2-----------|--------0-----0---------0--|
--------------------------|-----0-----------0--------|---------------------------|
-----3-----------3--------|--------------------------|-----3-----------3---------|
--1-----------------------|--3-----------------------|--1------------------------|


  E  E  Q    E  E  E  E     E  E  E  E  Q    E  E     E  E  E  E  Q    E  E   
-------------------------|--0-----0--0--0----3--5--|--0----------------------|
--3----------1-----3-----|--------0--1-------------|--------0--1----------1--|
--------2----------4--2--|-------------------------|-------------------2-----|
-----0----------0--------|-----2-------------------|-----2-------------------|
-------------------------|--0----------------------|--0-----------0----------|
--3----------------------|-------------------------|-------------------3-----|


  E  E  E  E  E  E  E  E     E  E  E  E  E  E  E  E     E  E  Q    E  E  E  E     
-----------0--------------|-----------0--------------|--0-----------------------||
--3--3--3--------------1--|--3--3--3-----------3-----|-------------0------------||
--------0-----2-----2--0--|--------2-----2-----4--2--|--2----------------0-----*||
--------------------------|-----0-----------0--------|--------4----L--------4--*||
-----3-----------3--------|--------------------------|-----2----------2---------||
--1-----------------------|--3-----------------------|--0-----------------------||


                            ^                   ^                   ^                 
  E  E  Q    E  E  E  E     W                   W                   W                 
--0----------0-----------|-------------------|-------------------|-------------------|
--3----------------------|--0----------------|--0----------------|--0----------------|
-------------------0-----|--0----------------|--0----------------|--0----------------|
--------4----L--------4--|--0----------------|--0----------------|--4----------------|
-----2----------2--------|--7----------------|-------------------|--7----------------|
--0----------------------|--8----------------|--0----------------|--0----------------|


  Q    Q    Q    Q       H        H            Q    E  E  E  E  H           Q    Q    Q    Q     
------------0----7----|--7--------5--------|---L----------------0--------|--L----0---------7----|
-------0--------------|--------------------|--------8--7--0--------------|------------8---------|
----------------------|--------------------|-----------------7-----------|----------------------|
----------------------|--------------------|-----------------------------|----------------------|
----------------------|--------------------|-----------------------------|----------------------|
----------------------|--------------------|-----------------------------|----------------------|


   X (4)                                                                                      
   H         Q    E   E      Q    E   E  E  E  E  E     E  E  E  E  Q    Q       E  E  E  E   
--10--------------7--10--|--------7--10--------------|--0-----0-----7---------|--------0--7--|
------------10-----------|--10-----------8--7--0-----|-----0-----7------------|-----0--------|
-------------------------|------------------------7--|------------------------|--------------|
-------------------------|---------------------------|------------------------|--------------|
-------------------------|---------------------------|--7---------------------|--------------|
-------------------------|---------------------------|------------------------|--------------|


  III V (3)                                                  VII       -]            
  E   E     Q    Q    E  E     E  E  Q    E  E  E  E      E  E   E  E  E  E  E   E   
--7---------5---------3--2--|--------0-------0-----7--|--10---------7--9------------|
-----------------3----------|--0--3-------------8-----|---0------7-----------7--10--|
------------5---------------|-------------------------|------7------------6---------|
------5---------------------|--------2----4-----------|----------------7------------|
--3-------------------------|-----2-------------------|-----------------------------|
----------------------------|--0----------------------|-----------------------------|


                             VII                               da capo                     
                             ^                     ^                                
  E  E  E   E  Q    Q        H         H           Q.     E  H                      
--7----------------------|---7------------------|--5---------2--------|-----------||
---------------7---------|---7--------10--------|--3------------------|-----------||
-------------------------|---9------------------|--4------------------|-----------||
--------9--11------------|--10------------------|---------------------|-----------||
-----9-------------------|----------------------|---------------------|-----------||
--7----------------------|---8------------------|---------------------|-----------||

Legend
---------------
W - whole
H - half
Q - quarter
E - 8th
. - note dotted
L - tied note
^ - brush up
Login or Register to remove this ad.