A Fight of Light and Darkness (TiagoTim5 Version) (Prince of Persia (2008)) Guitar Tab

Submitted: Jul 04, 2017 by Squirrrrrrel

5
Average: 5 (1 vote)
Download | Listen
Game: Prince of Persia (2008)
Composer(s): Stuart Chatwood, Inon Zur
Style: Arrangement, Transcription

AutoScroll: Slow | Medium | Fast
Prince of Persia (2008) - A Fight of Light and Darkness | TiagoTim5 cover |
Tabbed by Squirrrrrrel 03/07/2017 | I am not the author of the cover
Cover link: https://www.youtube.com/watch?v=tAdlM_zxDyM

Capo on 2nd fret

e|----------------0-----|0-3-1-------1-3-0-----|----------------------|----------------------|
B|2p0-------0-2s3-------|----------------------|------------3p2h3-----|------3s5s3---2-------|
G|----2---2-------------|----------------------|----------------------|----------------------|
D|------2---------------|----------------------|----------------------|----------------------|
A|0-----------0-------0-|0---0---0---0---0---0-|0---0-0-0---0-------0-|0---0---------0---0-0-|
E|----------------------|----------------------|----------------------|----------------------|

e|----------------------|----------------------|----------------------|----------------------|
B|----------------------|----------------------|----------------------|----1-----------------|
G|------------2---------|----------------1-2---|----------------------|--1---------2---------|
D|--------2-------------|------2---3-----------|--------------2---3---|----------------------|
A|0---0-0-----0---0---0-|0-0---0---0---0---0---|0-0---0-0-0---0---0---|0---0---0---0---0-0-0-|
E|----------------------|----------------------|----------------------|----------------------|

e|----------------------|----------------------|----------------------|----------------------|
B|----------------------|----------------------|----------------------|----------------------|
G|--0---------0---------|----------------------|--2-------------------|--------0-2-----------|
D|------1-------2-------|--------------------2-|--------------------2-|--3-------------------|
A|--0---0---0---0-----0-|0---0-0-0---0-0-0---0-|--3---3-3---3-3-3---0-|--4---4---3---3-3---3-|
E|----------------------|----------------------|----------------------|----------------------|

e|------------------0---|------------------0---|----------------------|-----------0----------|
B|----------------------|-0----------0-3-----0-|---------------------0|-------3-----3--------|
G|----------------0-----|----------------------|----------------------|----------------------|
D|------2---3-----------|----------------------|----------------------|-------0---------0-0--|
A|3-3---0---4---4-------|--------------0-------|----------------------|----------------------|
E|------------------0---|0---0-0-0-----------0-|---0-0---0-0-0---0-0-0|---0------------------|

e|----------------------|------------0---3-0---|--------3-2-----------|---------------0---3--|
B|-3-1-------0-0-----1--|--------1-------------|--------------3-0-----|----------------------|
G|-----2----------------|------0---------------|--------------------2-|---4-------2----------|
D|---------0------------|--2-------------------|----0-------0---------|-------4--------------|
A|-------------3---3----|3---3-------3---------|3---------------------|-------------------3--|
E|----------------------|----------------------|----------------------|-0--------------------|

e|-5-3----------2-----0-|2----3---3---5---2----|------------2h3p2-----|--------0-------------|
B|----------------3-----|----------------------|--------0-------------|----0-----------------|
G|----------------------|----------------------|----------------------|----------------------|
D|---------0--------0---|----------------------|----------------------|----------------------|
A|-------3--------------|-----------------2----|--2-2-------2-------2-|2---------------------|
E|----------------------|0---0-----------------|----------------------|--------0---0---0-0-0-|

e|------------0---------|----------------3----0|----------------------|----------------------|
B|--0-1-----4-----------|--------0-1---4-------|----------3-----3-0---|------------------0---|
G|----------------------|----------------------|------------3---------|----------------------|
D|----------------------|----------------------|----------------------|----------------------|
A|----3---3-------------|----------3-3---------|------------1---------|----------------------|
E|------------0---0-0---|0-0-0-----------0---0-|--0-0-0-----------0---|0-0---0-0-0---0-0---0-|

e|0---------------------|-----0----------------|------------7---------|--------5---7-2-------|
B|------------------0---|---3------------------|---0-------------7----|------7---------------|
G|--------------------5-|----------------------|-----5----3-----------|----------------------|
D|----------------------|----------------------|----------------------|----------------------|
A|----------------------|----------------------|----------------------|--------3-3---2---2-2-|
E|3---3-3-3---3-3-3---4-|-4-4-3---3-3-3---3-3-3|---3-4---4--7---7---7-|7-7-------------------|

e|------------------0--|-----------------------|0---------------------|----------------------|
B|--------------0------|---------------0-1----4|------------4-1-------|4-1---0---------------|
G|---------------------|-----------------------|----------------------|----------------------|
D|---------------------|-----------------------|----------------------|----------------------|
A|--2-2-2---2-2--------|-----------------------|----------------------|----------------------|
E|------------------0--|-0-0---0-0-0---0-0---0-|0---0-0---0-------0---|------0---------------|
Login or Register to remove this ad.