Ads

Adria-kai no Aoi Sora (Porco Rosso) Guitar Tab

Submitted: Nov 06, 2013 by Basisti94

4.8
Average: 4.8 (5 votes)
Download | Listen
Game: Porco Rosso
Composer(s): Joe Hisaishi
Style: Arrangement, Fingerstyle

This song is also called The Blue Skies of the Adriatic Sea

AutoScroll: Slow | Medium | Fast
               Adria-Kai no Aoi Sora / The Blue Skies of the Adriatic Sea	
                                
Porco Rosso
Joe Hisaishi
Guitar Arrangement by Basisti94 (Miro Laaksonen)
3.11.2013

------------------------
This song is from Porco Rosso image album. If I recall correctly, the melody
is used at least in Porco e Bella (Ending).
------------------------

Tempo ~ 96

     Q    Q    E.  E.  E     Q.     E  H           Q    E  E  Q    Q     
E||--------------------0--|---------------------|-------------0----1----|
B||------------1---3------|---------------------|-------3--3------------|
G||-------0---------------|--2------------------|--0--------------------|
D||--2--------------------|--3------------------|-----------------------|
A||--3--------------------|--3------3--3--------|--2--------------------|
E||-----------------------|---------------------|-----------------------|


  Q.     E  Q    Q       Q    E  E  Q    Q       Q.     E  Q    E  E   
----------------------|-------0--0--1----3----|--3--------------------|
----------------------|-----------------------|---------1--1----0--1--|
--2------0--0---------|-----------------------|-----------------------|
----------------------|-----------------------|-----------------------|
--3---------3----2----|--1--------------------|-----------------------|
----------------------|-----------------------|--1--------------------|


  ^                                                                     
  W                   E  E  E  E  E  E  E  E     Q    E  E  E  Q    E   
-------------------|--1--0--------------------|---------------------0--|
--3----------------|--------3--1--0-----------|-------------1--3-------|
-------------------|-----------------2--0-----|-------0--0-------------|
-------------------|-----------------------3--|--2---------------------|
--3----------------|--------------------------|--3---------------------|
--3----------------|--3-----------------------|------------------------|


  Q.     E  H           Q    E  E  Q    Q       Q.     E  Q    Q     
---------------------|-------------0----1----|----------------------|
---------------------|-------3--3------------|----------------------|
--2------------------|--0--------------------|--2------0--0---------|
--3------------------|-----------------------|----------------------|
--3------3--3--------|--2--------------------|--3---------3----2----|
---------------------|-----------------------|----------------------|


  Q.     E  E.  E.  E     Q.     E  Q.     E     Q.     E  Q    Q     
---------0--0---1---3--|--3----------------3--|--3------1--0---------|
-----------------------|---------1--1---------|-----------------3----|
-----------------------|--2-------------------|--1-------------------|
-----------------------|----------------------|----------------------|
--1--------------------|----------------------|----------------------|
-----------------------|--1-------------------|--1-------------------|


                                                  ^                 
  H        E  E  E  E     Q.     E  E.  E.  E     W                 
--0--------L--0--0--1--|-----------------------|-------------------|
-----------------------|--3------3--3---1---0--|--1----------------|
-----------------------|-----------------------|--0----------------|
-----------------------|-----------------------|--2----------------|
--3--------L-----------|--3--------------------|--3----------------|
--3--------L-----------|--3---------3----------|-------------------|


  H        E  E  E  E     Q.     E  E  E  E  E     H        E  E  E  E   
-----------------1--3--|--5------5--5--5--3-----|--3-----------------3--|
--------------1--------|---------------------6--|-----------------6-----|
-----------------------|------------------------|--------------5--------|
--3--------2-----------|--3---------3-----------|-----------------------|
--1--------3-----------|--3---------3-----------|--3--------3-----------|
--3--------------------|------------------------|-----------------------|


  Q.     E  E  E  E  E     H        E  Q    S  S    Q.     E  E.  E.  E   
--5------5--5--5--3-----|--3---------------------|--0------0--0---1---3--|
---------------------6--|--------------1----1h-3-|-----------------------|
------------------------|------------------------|-----------------------|
--3---------3-----------|--2--------2------------|--0---------0----------|
--3---------3-----------|--3--------3------------|--1---------1----------|
------------------------|------------------------|--3---------3----------|


  ^                                                                   
  H        E  Q    S  S    Q.     E  E.  E.  E     H        H         
--0-----------0----1p-0-|-----------------------|--------------------|
--2---------------------|----------------0---1--|--3--------4--------|
--2---------------------|--2------2--2----------|--------------------|
--2---------------------|--0--------------------|--------------------|
--0---------------------|------------3----------|--2--------2--------|
-----------3------------|--1---------1----------|--3--------3--------|


  Q    E  E  E  Q    E     Q.     E  H           Q    E  E  Q    Q     
---------------------0--|---------------------|-------------0----1----|
-------------1--3-------|---------------------|-------3--3------------|
-------0--0-------------|--2------------------|--0--------------------|
--2---------------------|--3------------------|-----------------------|
--3---------------------|--3------3--3--------|--2--------------------|
------------------------|---------------------|-----------------------|


  Q.     E  Q    Q       Q.     E  E.  E.  E     Q.     E  Q.     E   
----------------------|---------0--0---1---3--|--3----------------3--|
----------------------|-----------------------|---------1--1---------|
--2------0--0---------|-----------------------|--2-------------------|
----------------------|-----------------------|----------------------|
--3---------3----2----|--1--------------------|----------------------|
----------------------|-----------------------|--1-------------------|


  Q.     E  Q    Q       H        E  E  E  E     Q.     E  E.  E.  E   
--3------1--0---------|--0--------L--0--0--1--|-----------------------|
-----------------3----|-----------------------|--3------3--3---1---0--|
--1-------------------|-----------------------|-----------------------|
----------------------|-----------------------|------------3----------|
----------------------|--3--------L-----------|--3--------------------|
--1-------------------|--3--------L-----------|--3---------3----------|


  ^                                                            
  H.           E  E     W                                      
---------------------|-------------------|-------------------||
--1------------------|--L----------------|-------------------||
--0------------------|-------------------|-------------------||
--2------------L-----|--2----------------|-------------------||
--3------------L-----|--3----------------|-------------------||
------------------3--|-------------------|-------------------||




Duration Legend
---------------
W - whole
H - half
Q - quarter
E - 8th
S - 16th
T - 32nd
X - 64th
. - note dotted
|-n-|  - n-tuplets


Tablature Legend
----------------
L - tied note
x - dead note
g - grace note
(n) - ghost note
> - accentuded note
NH - natural harmonic
AH - artificial harmonic
TH - tapped harmonic
SH - semi harmonic
PH - pitch harmonic
h - hammer on
p - pull off
b - bend
br - bendRelease
pb - preBend
pbr - preBendRelease
brb - bendReleaseBend
\n/ - tremolo bar dip
\n - tremolo bar dive
-/n - tremolo bar Release up
/n\ - tremolo bar inverted dip
/n - tremolo bar return
-\n - tremolo bar Release down
S - shift slide
s - legato slide
/ -  slide into from below or out of upwards
\ -  slide into from above or out of downwards
~ - vibrato
W - wide vibrato
tr - trill
TP - tremolo picking
T - tapping
S - slap
P - pop
< - fade in
^ - brush up
v - brush down
Login or Register to remove this ad.

1 comment on Adria-kai no Aoi Sora

Sounds nice, great job!

5

Sounds nice, great job!