Ads

Ana's Theme (Policenauts) Guitar Tab

Submitted: Mar 14, 2010 by

5
Average: 5 (2 votes)
Download | Listen
Game: Policenauts
Composer(s): Motoaki Furukawa, Tappi Iwase, Masahiro Ikariko
Style: Alternate picking, Arrangement

AutoScroll: Slow | Medium | Fast
                                  Ana's Theme
				Policenauts OST

Composed by Motoaki Furukawa, Tappi Iwase, and Masahiro Ikariko 
Tab by xberserkx                                  


      E  E  E  Q    Q    E     E  Q    Q    E  E  E     E  E  E  Q    Q    E   
E||----------------------0--|--L---------------------|---------------------0--|
B||------------0------------|-----0---------0--------|-----------0------------|
G||*--------2-------2-------|----------2-------2-----|--------2-------2-------|
D||*-----2------------------|---------------------2--|-----2------------------|
A||---0---------------------|------------------------|------------------------|
E||-------------------------|------------------------|--2---------------------|


  E  Q    Q    E  E  E     E  E  E  Q    Q    E     E  Q    Q    E  E  E   
--L---------------------|---------------------0--|--L---------------------|
-----0---------------0--|------------------------|-----0------------------|
----------2-------2-----|-----------1------------|----------1-------------|
---------------2--------|--------2-------2-------|---------------2--------|
------------------------|-----2------------------|------------------2--4--|
------------------------|--0---------------------|------------------------|


  E  E  E  Q    Q    E     E  H.           E     E  E  E  Q    Q    E   
-----------0---------5--|--L--L------------L--|---------------------0--|
--------3-------3-------|---------------------|-----------0------------|
-----2------------------|---------------------|--------2-------2-------|
--0---------------------|---------------------|-----2------------------|
------------------------|---------------------|--0---------------------|
------------------------|---------------------|------------------------|


  E  Q    Q    E  E  E     E  E  E  Q    Q    E     E  Q    Q    E  E  E   
--L---------------------|---------------------0--|--L---------------------|
-----0---------0--------|-----------0------------|-----0---------------0--|
----------2-------2--1--|--------2-------2-------|----------2-------2-----|
------------------------|-----2------------------|---------------2--------|
------------------------|------------------------|------------------------|
------------------------|--2---------------------|------------------------|


  E  E  E  Q    Q    E     E  Q    Q    E  E  E     E  E  E  Q    Q    E   
---------------------0--|--L---------------------|-----------0---------5--|
------------------------|-----0------------------|--------3-------3-------|
-----------1------------|----------1-------------|-----2------------------|
--------2-------2-------|---------------2--0-----|--0---------------------|
-----2------------------|---------------------4--|------------------------|
--0---------------------|------------------------|------------------------|


  E  H.           E     E  E  E  E  E  E  E  E     E  S  S  H.            
--L--L------------L--|--------------------------|------------------------|
---------------------|-----------7-----7-----5--|-----5s-7s-5------------|
---------------------|--------6--6-----6-----4--|-----4s-6s-4------------|
---------------------|-----7-----7-----7-----6--|------------------------|
---------------------|--5--------5-----5-----4--|------------------------|
---------------------|--------------------------|------------------------|


  E  E  E  E  E  E  E  E     E  E   Q    T  T  S S S S S S S  
--------------------------|--------------4h-5p-4-------------|
--3--------3-----3-----2--|-----3s--5------------7-5---------|
--2-----2--2-----2-----2--|-----4s--6----------------6-4-----|
--4--4-----4-----4--------|------------------------------7-6-|
--2--------------------0--|----------------------------------|
--------------------------|----------------------------------|


  E  E  E  E  E  E  E  E     E  S  S Q    S  E.  Q       E  E  E  Q    Q    E   
--------------------------|---------------------------|---------------------2--|
-----------7-----7-----5--|----------5----5S-7---5----|--3---------------------|
--------6--6-----6-----4--|---------------------------|-----------2------------|
-----7-----7-----7-----6--|-----4s-6------6S-7---6----|--------4-------4-------|
--5--------5-----5-----4--|---------------------------|-----2------------------|
--------------------------|---------------------------|------------------------|


  E  E  Q    E  E  Q       E  E  Q    E  Q    E     E  E  H.           99x
--L---------------------|------------------------|----------------------||
-------------3--2-------|--------3----3--3----3--|-----5--5-------------||
--------2----------2----|--------2----2--2----2--|-----4--4------------*||
-----4------------------|-----x--4----4--4----4--|-----6--6------------*||
------------------------|-----x------------------|----------------------||
------------------------|--0---------------------|----------------------||




Duration Legend
---------------
W - whole
H - half
Q - quarter
E - 8th
S - 16th
T - 32nd
X - 64th
. - note dotted
|-n-|  - n-tuplets


Tablature Legend
----------------
L - tied note
x - dead note
g - grace note
(n) - ghost note
> - accentuded note
NH - natural harmonic
AH - artificial harmonic
TH - tapped harmonic
SH - semi harmonic
PH - pitch harmonic
h - hammer on
p - pull off
b - bend
br - bendRelease
pb - preBend
pbr - preBendRelease
brb - bendReleaseBend
\n/ - tremolo bar dip
\n - tremolo bar dive
-/n - tremolo bar Release up
/n\ - tremolo bar inverted dip
/n - tremolo bar return
-\n - tremolo bar Release down
S - shift slide
s - legato slide
/ -  slide into from below or out of upwards
\ -  slide into from above or out of downwards
~ - vibrato
W - wide vibrato
tr - trill
TP - tremolo picking
T - tapping
S - slap
P - pop
< - fade in
^ - brush up
v - brush down

Login or Register to remove this ad.

2 comments on Ana's Theme

You are amazing

5

I'm so happy someone did this. I love you.

This is pretty damned good =)

This is pretty damned good =)