Ads

Pokemon Center (Pokémon Red & Blue & Yellow) Guitar Tab

Submitted: Feb 11, 2013 by auriplane (Last updated: Feb 12, 2013)

5
Average: 5 (10 votes)
Download | Listen
Game: Pokémon Red & Blue & Yellow
Composer(s): Junichi Masuda
Style: Arrangement, Fingerstyle
Series: Pokemon

AutoScroll: Slow | Medium | Fast
              Pokemon Red & Blue & Yellow - Pokemon Center
                      Composed by Junichi Masuda

           Tabbed & arranged by Auriplane ([email protected])


This probably isn't the best arrangement, but I wanted to do one, and
this is what I came up with :-)



Standard tuning, capo on 5.

   ^
e |------0---------|----------------|----------------|----------------|
B |------2---3---2-|0---------------|------2---0-----|--2-------------|
G |2---2-----2---2-|1-1-------------|1---1-1---1---1-|2-2-------2---2-|
D |2-2-------------|--2-------2---2-|2-2-2---------2-|2-----2-----2---|
A |0---------------|------2-----2---|--2-------------|0---------------|
E |----------------|0---------------|0---------------|----------------|

   ^
e |------0---------|----------------|----------------|----------------|
B |------2---3---2-|0---------------|------2---0-----|----------------|
G |2---2-----2---2-|1-1-------------|1---1-1---1---1-|2---------------|
D |2-2-------------|--2-------2---2-|2-2-2---------2-|2---------------|
A |0---------------|------2-----2---|--2-------------|0---0h2h4p2p0---|
E |----------------|0---------------|0---------------|--0-----------0-|


e |--------0-------|--0-------------|----------------|----------------|
B |2-------2-------|3---3-2---------|--------0-------|2-3-2-----------|
G |2---2-------2---|4---4---4-------|1-------1-------|2---2-4-2-------|
D |--2---2---2---2-|--4---4---4---4-|2---2-------2---|--2---2---2---2-|
A |0-------0-------|2-------2-------|--2---2---2---2-|0-------0-------|
E |----------------|----------------|0-------0-------|----------------|

                                                      1st ending
e |--------0-------|------0-2-------|0---------------|----------------|
B |2-------2-------|3-2-3-----------|----3-2-3-------|2-3-2-0---------|
G |2---2-------2---|4---4-----------|----1-------1---|----1---2-------|
D |--2---2---2---2-|--4---4---4---4-|----------------|----------2---2-|
A |0-------0-------|2-------2-------|--2---2---2---2-|--2---2-0-------|
E |----------------|----------------|0-------0-------|0---------------|
                                                              ^
                                                      2nd ending
                                                     |----------------|
                                                     |2-3-2-0---------|
                                                     |----1---2-------|
                                                     |--------2-------|
                                                     |--2---2-4-------|
                                                     |0-------5-------|


Login or Register to remove this ad.

2 comments on Pokemon Center

I like the little pauses.

5

I like the little pauses.

i like you :3

i like you :3