Ads

Opening (Pokémon Red & Blue & Yellow) Guitar Tab

Submitted: Dec 22, 2012 by game of sofas (Last updated: Dec 22, 2012)

4.6
Average: 4.6 (10 votes)
Download | Listen
Game: Pokémon Red & Blue & Yellow
Composer(s): Junichi Masuda
Style: Arrangement, Fingerstyle
Series: Pokemon

AutoScroll: Slow | Medium | Fast
Pokemon Red & Blue - Opening
Composed by Junichi Masuda
Tabbed by Game of Sofas

Hey, this is my first tab, so be as criticizing as you possibly can!

Gtr I (E A D G B E) - CAPO 3

 4/4
  Gtr I
  E E Q  E E Q   E E Q  E E Q   E E Q  E E Q   H    H
|-----2------3-|-----2------1-|-----2------6-|-7-------|
|-----3------5-|-----3------2-|-----3------5-|-3-------|
|--------------|--------------|--------------|------4--|
|--------------|--------------|--------------|------4--|
|-2-2----2-2---|-2-2----2-2---|-2-2----2-2---|---------|
|--------------|--------------|--------------|---------|


   H    H      E E Q  E E Q   E E Q  E E Q   W         S   H..
|--5---------|-----2------3-|-----6------6-|-7-------|-7-------||
|--3---------|-----3------5-|-----5------5-|-4-------|-4-------||
|-------2----|--------------|--------------|-4-------|-4-------||
|-------2----|--------------|--------------|---------|---------||
|------------|-2-2----2-2---|-2-2----4-4---|---------|---------||
|------------|--------------|--------------|---------|---------||


              |-3-|         |-3-| |-3-|
    Q  E Q.   E E E   Q  Q  E E E E E E
||------------------|--------------------||
||o-----------------|-------------------o||
||--9--9------9-9-9-|-9--9--7-----8------||
||--6--6------6-6-6-|-6--6----4-----5----||
||o-7--7------7-7-7-|-7--7------5-----6-o||
||------------------|--------------------||


    E E E E E E E E   E E E E E E E S S   E E E E E E E S S
||--0---------------|-------------------|-0----------------|
||o-0-------0-------|---------3-----2-1-|-0----------------|
||--1-----1---------|---------2---------|-1----------------|
||--2---------------|-------------------|-2-------0--------|
||o-2---------------|-0-0-0-0-0-0-0-0---|-2-------------4-3|
||--0-0-0-0-0-0-0-0-|-------------------|-0-0-0-0-0-0-0-0--|


          |-3-|                               |-3-|
  E E E E Q Q Q  3x E E E E E E E E   E E E E Q Q Q   E E E E E E E E
|----------------||-0---------------|---------------|-----------------|
|---------------o||-0-------0-------|---------3-2-3-|-5-----8-5-------|
|---------2-1-2--||-1-----1---------|---------2-2-2-|-4-----7-4-------|
|-2-------2-2-2--||-2---------------|---------------|-----------------|
|-2-------0-0-0-o||-2---------------|-0-0-0-0-0-0-0-|-----------------|
|-0-0-0-0--------||-0-0-0-0-0-0-0-0-|---------------|-0-0-0-0-0-0-0-0-|


  E E E E E E E E   E E E E E E E E   E E E E E E E E   E E E E E E E E
|-------------2---|-3---------------|---------3---4---|-5---------------|
|---------5---2---|-3-----3-3-------|---------3---4---|-5-----5-5-------|
|---------4---2---|-------4-4-------|-----------------|-------6-6-------|
|-----------------|-----------------|-----------------|-----------------|
|-0-0-0-0-0-0-----|-----------------|---------5---6---|-----------------|
|-------------2-2-|-3-3-3-3-3-3-3-3-|-3-3-3-3-3-3-4-4-|-5-5-5-5-5-5-5-5-|


                                              |-3-|
  E E E E E E E E   E E E E E E E E   E E E E Q Q Q   E E E E E E E E
|---------5---6---|-7---------------|---------5-5-6-|-7----------------|
|---------5---6---|-7---------------|---------5-5-6-|-7----------------|
|-----------------|-8---------------|---------------|-8----------------|
|-----------------|-9---------------|---------------|-9----------------|
|---------7---8---|-9-9-9-9-9-9-9-9-|-9-9-9-9-------|-9-9-9-9-9-9-9-9--|
|-5-5-5-5-5-5-6-6-|-7-7-7-7-7-7-7-7-|-7-7-7-7-5-5-6-|-7-7-7-7-7-7-7-7--|


          |-3-|
  E E E E Q Q Q     E E E E E E E E   E E E E E E E S S   E E E E E E E E
|---------5-5-4-||--0---------------|-------------------|-0---------------|
|---------5-5-4-||o-0-------0-------|---------3-----2-1-|-0---------------|
|---------------||--1-----1---------|---------2---------|-1---------------|
|---------------||--2---------------|-------------------|-2-------0-------|
|-9-9-9-9-------||o-2---------------|-0-0-0-0-0-0-0-0---|-2-------------4-|
|-7-7-7-7-5-5-4-||--0-0-0-0-0-0-0-0-|-------------------|-0-0-0-0-0-0-0-0-|


          |-3-|
  E E E E Q Q Q   H
|---------------|-0--------*|----|
|---------------|-0--------*|----|
|---------2-1-2-|-1--------*|----|
|-2-------2-2-2-|-2--------*|----|
|-2-------0-0-0-|-2--------*|----|
|-0-0-0-0-------|-0--------*|----|
Login or Register to remove this ad.

14 comments on Opening

Great work, hope to see more

5

Great work, hope to see more from ya!

Why the Capo

1

I seriously hate when people say use a Capo. Since I don't own one nor want to waste my money on one it really is frustrating when the only tab of a single song say to use a capo.

In short go back in add just add three to all the notes. Please

Obviously...

It's obviously easier to play and sounds better with the capo. Look at all those open notes the capo makes possible.

If you want to play it in the correct key so badly without a capo, do like you said yourself, and +3 all the notes. It's that easy. You should count yourself lucky there even exists a tab with all the correct notes for the song you want, capo or not.

If you need a cheap capo, make one out of a pencil and an extra shoe string. It works.

Or the obvious answer: just play it anyways without the capo. It'll be out of key, but who cares?

Dude, I hate to say this, but

Dude, I hate to say this, but buy a capo. They cost like 5 euros. Why would you as a guitar player refuse to spend money on such a cheap but really useful tool? It's not waste of your money

It's a great tab for your

It's a great tab for your first go. Good job c:
however, one staring a tab because of use of a capo is pretty selfish. I see nothing wrong playing it without a capo. It sounds great either or.

This is why we are gonna

This is why we are gonna remove five star ratings

Thanks! This is the reason

Thanks! This is the reason I'm glad to see it go!

(though if people weren't pricks the system works pretty well)

I almost think of a capo as

I almost think of a capo as part of my guitar, I always have one clipped on (I'm mostly a classical/fingerstyle/jazz player). Why the hate for a capo? I got a pack of really nice ones and it ended up costing me about $4 per capo. I stuck one on every guitar I own.

It's like saying that the original piano didn't have a sustain pedal (it didn't when it was invented), so sustain pedals are not traditional. I'm not going to use a sustain petal.

in previous comments he

in previous comments he called capos lazy

Which is funny, because capos

Which is funny, because capos more than pull their own weight. :)

but its true that they're

but its true that they're coming over here and stealing jobs from good hard working hands, we need comprehensive barring reform to protect natural born hands from those who want to take advantage of the cheap alternative

I think there's a general

I think there's a general capo hate because it can be used as a crutch to make things a bit easier by putting the frets closer together. It's a lot easier to stretch from 5 to 9 than it is from 1 to 5.

That being said, I don't think you should shame others for that reason..

Just gonna throw it in their

Just gonna throw it in their that sometimes i use 2 capo's at once... (¬‿¬ )

Two heads are better than one

Two heads are better than one