Tin Tower (Pokémon Gold & Silver) Guitar Tab

Submitted: Oct 24, 2009 by Randolf

4.8
Average: 4.8 (5 votes)
Download | Listen
Game: Pokémon Gold & Silver
Composer(s): Junichi Masuda, Go Ichinose
Style: 2 or more instruments, Arrangement, Fingerstyle, Percussion
Series: Pokemon

Click here for a video example.

AutoScroll: Slow | Medium | Fast
Tin Tower
Pokémon Crystal
Composed by Junichi Masuda
Arranged by Pim and Daan van den Berg

Guitar 1 (Capo 8)


     Q    Q    E  E  E  E     Q    Q    Q    Q       Q    Q    E  E  E  E   
E||--0----0----1--0-----1--|--0----5----1---------|--0----0----1--0-----1--|
B||------------------3-----|-----------------3----|------------------3-----|
G||------------------------|----------------------|------------------------|
D||------------------------|----------------------|------------------------|
A||------------------------|----------------------|------------------------|
E||------------------------|----------------------|------------------------|


  Q    Q    H           Q    Q    E  E  E  E     Q    Q    Q    Q     
--0---------0--------|--0----0----1--0-----1--|--0----5----1---------|
-------0-------------|------------------3-----|-----------------3----|
---------------------|------------------------|----------------------|
---------------------|------------------------|----------------------|
---------------------|------------------------|----------------------|
---------------------|------------------------|----------------------|


  Q    Q    E  E  E  E     Q    Q    H           Q    Q    H         
--0----0----1--0-----1--|--0---------0--------|---------------------|
------------------3-----|-------0-------------|---------------------|
------------------------|---------------------|---------------------|
------------------------|---------------------|--2----2-------------|
------------------------|---------------------|---------------------|
------------------------|---------------------|---------------------|


  Q    Q    Q    Q       Q    Q    Q    Q       Q    Q    Q    Q     
----------------------|----------------------|----------------------|
----------------------|----------------------|----------------------|
----------------------|----------------------|-----------------0----|
--2----2---------2----|--3----3---------2----|--3----3--------------|
----------------------|----------------------|----------------------|
----------------------|----------------------|----------------------|


  Q    Q    E  E  E  E     Q    Q    H           Q    Q    E  E  E  E   
-------0----------------|---------------------|-------0-------0--1-----|
--0---------3--1--0--1--|--0---------0--------|--0---------3--------3--|
------------------------|---------------------|------------------------|
------------------------|---------------------|------------------------|
------------------------|-------2-------------|------------------------|
------------------------|---------------------|------------------------|


  Q    Q    H           
--0---------0---------||
----------------------||
---------------------*||
---------------------*||
-------2--------------||
----------------------||


Guitar 2 (Capo 1)


     Q    Q    H           Q    Q    E  E  E  E     Q    Q    Q    Q     
E||--2---------3--------|--2---------------------|--2---------3----0----|
B||-------0-------------|-------0-------0--1-----|-------0--------------|
G||---------------------|------------2--------2--|----------------------|
D||---------------------|------------------------|----------------------|
A||---------------------|------------------------|----------------------|
E||---------------------|------------------------|----------------------|


  Q    Q    E  E  E  E     E  E  E  E  H           Q    Q    E  E  E  E   
--2---------2-----------|--2--0-----2--3--------|--2----0----3--2--0--3--|
-------0----------------|--------0--------------|------------------------|
------------------------|-----------------------|------------------------|
---------------------0--|-----------------------|--2------------------0--|
------------0--2--3-----|--2-----------3--------|------------0--2--3-----|
------------------------|-----------------------|------------------------|


  E  E  E  E  Q    Q       Q    Q    H           E  S S E  Q    E  E  E   
--2--0-----2--3----0----|--2---------2--------|--------------------------|
--------0---------------|-------0-------------|--------------------------|
------------------------|---------------------|--------------------------|
------------------------|---------------------|--------------------------|
--2-----------3---------|--2------------------|--------------------------|
------------------------|---------------------|--x--x-x-x--x----x--x--x--|


  E  S S E  Q    Q    E     E  S S E  Q    Q    E     E  S S E  Q    E  Q     
-------------------------|-------------------------|-------------------------|
-------------------------|-------------------------|-------------------------|
-------------------------|-------------------------|--------------------2----|
-------------------------|-------------------------|-------------------------|
-------------------------|-------------------------|-------------------------|
--x--x-x-x--x----x----x--|--x--x-x-x--x----x----x--|--x--x-x-x--x----x-------|


  Q    Q    Q       Q    Q    E  E  E  E     Q    Q    H         
-----------------|------------------------|---------------------|
-----------------|------------------------|---------------------|
-----------------|------------------------|---------------------|
-----------------|---------------------0--|---------------------|
--2----2---------|--2----2----0--2--3-----|--2----2-------------|
-----------------|------------------------|---------------------|


  Q    Q    Q    E  E     
-----------------7--8---||
------------------------||
-----------------------*||
-----------------------*||
--2----2----------------||
------------------------||




Duration Legend
---------------
W - whole
H - half
Q - quarter
E - 8th
S - 16th


Tablature Legend
----------------
x - dead note

Login or Register to remove this ad.

2 comments on Tin Tower

How THE HELL isn't there any

5

How THE HELL isn't there any comment on this?
This duet sounds AWESOME and it's very fun to play. I can't wait to find someone to play this one with me.

Thank you very much for sharing it!

You're very welcome! Hope

You're very welcome! Hope you'll find someone! :P