Rival Battle (Pokémon Gold & Silver) Guitar Tab

Submitted: Mar 17, 2011 by Kyuubi Wraith

5
Average: 5 (1 vote)
Download | Listen
Game: Pokémon Gold & Silver
Composer(s): Junichi Masuda, Go Ichinose
Style: 2 or more instruments, Transcription
Series: Pokemon

AutoScroll: Slow | Medium | Fast
Pokemon GSC Rival Battle
Tuning: EADGBE
Time Signature: 4/4
Tempo: 180
Composed by Go Ichinose
Tabbed by Ricardo Ramos

Guitar 1

  E   E       H                    E   E       Q.          Q
|-----6-------6-------------------|----9-------9-----------12------|
|-7-------------------------------|11------------------------------|
|---------------------------------|--------------------------------|
|---------------------------------|--------------------------------|
|---------------------------------|--------------------------------|
|---------------------------------|--------------------------------|
 
  E           Q       Q.           E           Q       Q.
|-11------------------------------|--------------------------------|
|-------------7-------9-----------|------------7-------9-----------|
|---------------------------------|8-------------------------------|
|---------------------------------|--------------------------------|
|---------------------------------|--------------------------------|
|---------------------------------|--------------------------------|
 
  E           Q       Q.           E   E       Q            S  S
|---------------------------------|--------------------------------|
|-------------7-------9-----------|----7-------7------------12-13--|
|-8-------------------------------|8-------------------------------|
|---------------------------------|--------------------------------|
|---------------------------------|--------------------------------|
|---------------------------------|--------------------------------|
 
  E           Q       Q.           E           Q       Q.
|---------------------14----------|--------------------14----------|
|-14----------17------------------|14----------17------------------|
|---------------------------------|--------------------------------|
|---------------------------------|--------------------------------|
|---------------------------------|--------------------------------|
|---------------------------------|--------------------------------|
 
  E           Q       Q.           E   E       H               E
|---------------------14----------|--------------------------------|
|-14----------17------------------|14--17------17--------------L---|
|---------------------------------|--------------------------------|
|---------------------------------|--------------------------------|
|---------------------------------|--------------------------------|
|---------------------------------|--------------------------------|

  H               E   E   E   E    Q       Q       E   Q.       
|-----------------------------14--|--------------------------------|
|-16--------------L-------16------|18------16----------16----------|
|o--------------------15----------|----------------18--------------|
|o--------------------------------|--------------------------------|
|---------------------------------|--------------------------------|
|---------------------------------|--------------------------------|
 
  W                                W        
|---------------------------------|16------------------------------|
|-18------------------------------|--------------------------------|
|---------------------------------|--------------------------------|
|---------------------------------|--------------------------------|
|---------------------------------|--------------------------------|
|---------------------------------|--------------------------------|
 
  H               E   E   E   E    Q       Q       E   Q.       
|-----------------------------14--|--------------------------------|
|-16--------------L-------16------|18------16----------16----------|
|---------------------15----------|----------------18--------------|
|---------------------------------|--------------------------------|
|---------------------------------|--------------------------------|
|---------------------------------|--------------------------------|
 
  W                                W 
|---------------------------------|16------------------------------|
|-18------------------------------|--------------------------------|
|---------------------------------|--------------------------------|
|---------------------------------|--------------------------------|
|---------------------------------|--------------------------------|
|---------------------------------|--------------------------------|

  W                                H               H        
|---------------------------------|--------------------------------|
|-12------------------------------|14--------------12--------------|
|---------------------------------|--------------------------------|
|---------------------------------|--------------------------------|
|---------------------------------|--------------------------------|
|---------------------------------|--------------------------------|
 
  W                                W      
|---------------------------------|--------------------------------|
|---------------------------------|--------------------------------|
|-15------------------------------|--------------------------------|
|---------------------------------|13------------------------------|
|---------------------------------|--------------------------------|
|---------------------------------|--------------------------------|
 
  W                                H               H      
|---------------------------------|--------------------------------|
|-12------------------------------|14--------------12--------------|
|---------------------------------|--------------------------------|
|---------------------------------|--------------------------------|
|---------------------------------|--------------------------------|
|---------------------------------|--------------------------------|
 
  W                                W       
|---------------------------------|--------------------------------|
|-16------------------------------|L-------------------------------|
|---------------------------------|--------------------------------|
|---------------------------------|--------------------------------|
|---------------------------------|--------------------------------|
|---------------------------------|--------------------------------|
 
  H               E   E   E   E    H               H       
|---------------------16--18--19--|21--------------19--------------|
|-17--------------L---------------|--------------------------------|
|---------------------------------|--------------------------------|
|---------------------------------|--------------------------------|
|---------------------------------|--------------------------------|
|---------------------------------|--------------------------------|
 
  W                                W
|-18------------------------------|17------------------------------|
|---------------------------------|--------------------------------|
|---------------------------------|--------------------------------|
|---------------------------------|--------------------------------|
|---------------------------------|--------------------------------|
|---------------------------------|--------------------------------|
 
  W                                W     
|-16------------------------------|15------------------------------|
|---------------------------------|--------------------------------|
|---------------------------------|--------------------------------|
|---------------------------------|--------------------------------|
|---------------------------------|--------------------------------|
|---------------------------------|--------------------------------|


  H               H                H               H        
|---------------------------------|--------------------------------|
|-8-------------------------------|11--------------9---------------|
|-----------------8---------------|--------------------------------|
|---------------------------------|--------------------------------|
|---------------------------------|--------------------------------|
|---------------------------------|--------------------------------|
 
  H               H                H               H         
|---------------------------------|--------------------------------|
|---------------------------------|--------------------------------|
|---------------------------------|8---------------10--------------|
|-9---------------11--------------|--------------------------------|
|---------------------------------|--------------------------------|
|---------------------------------|--------------------------------|
 
  H               H                H               H                
|-15------------------------------|18--------------16--------------|
|-----------------16--------------|--------------------------------|
|---------------------------------|--------------------------------|
|---------------------------------|--------------------------------|
|---------------------------------|--------------------------------|
|---------------------------------|--------------------------------|
 
  H               H                H               H              
|---------------------------------|--------------------------------|
|---------------------------------|16--------------18--------------|
|-16--------------18--------------|--------------------------------|
|---------------------------------|--------------------------------|
|---------------------------------|--------------------------------|
|---------------------------------|--------------------------------|
 
  W                                W       
|-15------------------------------|--------------------------------|
|---------------------------------|16------------------------------|
|---------------------------------|--------------------------------|
|---------------------------------|--------------------------------|
|---------------------------------|--------------------------------|
|---------------------------------|--------------------------------|
 
  H               H                H               H              
|---------------------------------|--------------------------------|
|---------------------------------|--------------------------------|
|-16--------------15--------------|--------------------------------|
|---------------------------------|18--------------15--------------|
|---------------------------------|--------------------------------|
|---------------------------------|--------------------------------|

  E           Q       Q.           E           Q       Q.     
|---------------------------------|--------------------------------|
|-------------14------16----------|------------14------16----------|
|-15------------------------------|15------------------------------|
|---------------------------------|--------------------------------|
|---------------------------------|--------------------------------|
|---------------------------------|--------------------------------|
 
  E           Q       Q.           E   E       H               E
|---------------------------------|--------------------------------|
|-------------14------16----------|----14------14--------------L---|
|-15------------------------------|15------------------------------|
|---------------------------------|--------------------------------|
|---------------------------------|--------------------------------|
|---------------------------------|--------------------------------|
 
  E           Q       Q.           E           Q       Q.           
|---------------------------------|--------------------------------|
|-------------12------14----------|------------12------14----------|
|-13------------------------------|13------------------------------|
|---------------------------------|--------------------------------|
|---------------------------------|--------------------------------|
|---------------------------------|--------------------------------|
 
  E           Q       Q.           E   E       Q.          Q
|---------------------------------|--------------------------------|
|-------------12------14----------|----12------12----------14------|
|-13------------------------------|13-----------------------------o|
|---------------------------------|-------------------------------o|
|---------------------------------|--------------------------------|
|---------------------------------|--------------------------------|

  Q.          Q       Q.           Q.          Q       Q.   
|---------------------18----------|16----------14------------------|
|-16------------------------------|--------------------18----------|
|-------------15------------------|--------------------------------|
|---------------------------------|--------------------------------|
|---------------------------------|--------------------------------|
|---------------------------------|--------------------------------|
 
  Q.          Q       Q.           Q.          Q       Q.   
|-14------------------------------|--------------------------------|
|-------------18------16----------|18----------16------14----------|
|---------------------------------|--------------------------------|
|---------------------------------|--------------------------------|
|---------------------------------|--------------------------------|
|---------------------------------|--------------------------------|
                                        
  E  E   H                         E   E   E   Q
|---------------------------------|--------------------------------|
|-14b16--L------------------------|16--16--x---16------------------|
|---------------------------------|15--15--x---15------------------|
|---------------------------------|--------------------------------|
|---------------------------------|--------------------------------|
|---------------------------------|--------------------------------|
                                    

Guitar 2

 S S S S S S S S S S S S S S S S  S S S S S S S S S S S S S S S S 
|--------------------------------|--------------------------------|
|17161514151413121312111011109-8-|--------------------------------|
|--------------------------------|141312111211109-109-8-7-8-7-6-5-|
|--------------------------------|--------------------------------|
|--------------------------------|--------------------------------|
|--------------------------------|--------------------------------|
 
 E           Q       Q.           E           Q       Q.     
|--------------------------------|--------------------------------|
|--------------------------------|--------------------------------|
|------------6-------8-----------|------------6-------8-----------|
|8-------------------------------|8-------------------------------|
|--------------------------------|--------------------------------|
|--------------------------------|--------------------------------|
 
 E           Q       Q.           E   E       Q      
|--------------------------------|--------------------------------|
|--------------------------------|--------------------------------|
|------------6-------8-----------|----6-------6-------------------|
|8-------------------------------|8-------------------------------|
|--------------------------------|--------------------------------|
|--------------------------------|--------------------------------|
 
 E           Q       Q.           E           Q       Q.      
|--------------------------------|--------------------------------|
|------------12------14----------|------------12------14----------|
|13------------------------------|13------------------------------|
|--------------------------------|--------------------------------|
|--------------------------------|--------------------------------|
|--------------------------------|--------------------------------|
 
 E           Q       Q.           E   E       H               E
|--------------------------------|--------------------------------|
|------------12------14----------|----12------12--------------L---|
|13------------------------------|13------------------------------|
|--------------------------------|--------------------------------|
|--------------------------------|--------------------------------|
|--------------------------------|--------------------------------|

 Q.          Q       Q.           Q       Q       E   Q.       
|--------------------------------|--------------------------------|
|11------------------------------|----------------9---11----------|
|o-----------11------------------|10------11----------------------|
|o-------------------13----------|--------------------------------|
|--------------------------------|--------------------------------|
|--------------------------------|--------------------------------|
 
 S S S S Q      S S  S  S Q       E   E   E   E   E   E   E   E
|--------------------------------|----------------------------12--|
|6-------6------9---------9------|----11--12--11--12--14--12------|
|--8-6-8----------11-10-11-------|13------------------------------|
|--------------------------------|--------------------------------|
|--------------------------------|--------------------------------|
|--------------------------------|--------------------------------|
 
 Q.          Q       Q.           Q       Q       E   Q.     
|--------------------------------|--------------------------------|
|11------------------11----------|14------12----------------------|
|------------11------------------|----------------15--13----------|
|--------------------------------|--------------------------------|
|--------------------------------|--------------------------------|
|--------------------------------|--------------------------------|
 
 Q.          Q       Q.           E   E   E   E   E   E   E   E     
|--------------------------------|--------------------------------|
|------------14------------------|------------13--14--------------|
|--------------------13----------|--------13----------13------13--|
|15------------------------------|----15------------------15------|
|--------------------------------|16------------------------------|
|--------------------------------|--------------------------------|


 H               E   E   E   E    Q       Q       E   Q.       
|--------------------------------|--------------------------------|
|--------------------------------|--------------------------------|
|11--------------L-----------11--|10------------------------------|
|------------------------13------|--------13------11--13----------|
|--------------------14----------|--------------------------------|
|--------------------------------|--------------------------------|
 
 W                                W
|--------------------------------|--------------------------------|
|--------------------------------|--------------------------------|
|10------------------------------|--------------------------------|
|--------------------------------|--------------------------------|
|--------------------------------|13------------------------------|
|--------------------------------|--------------------------------|
 
 H               E   E   E   E    E   E   E   E   E   E   E   E      
|--------------------------------|--------------------------------|
|--------------------------------|--------------------------------|
|11--------------L-----------11--|10--------------13--11--10--13--|
|------------------------13------|----13--11--13------------------|
|--------------------14----------|--------------------------------|
|--------------------------------|--------------------------------|
 
 W                                W       
|--------------------------------|--------------------------------|
|--------------------------------|--------------------------------|
|15------------------------------|L-------------------------------|
|--------------------------------|--------------------------------|
|--------------------------------|--------------------------------|
|--------------------------------|--------------------------------|
 
 H               E   E   Q        E   E   E   E   E   E   E   E
|12--------------L---12----------|12--11--9-------14--------------|
|--------------------------------|------------12------17--16--14--|
|------------------------13------|--------------------------------|
|--------------------------------|--------------------------------|
|--------------------------------|--------------------------------|
|--------------------------------|--------------------------------|
 
 E   E   E   E   E   E   E   E   E   E   E   E   E   E   E   E
|--------------------------------|--------------------------------|
|------------16--17--16------16--|----16--17--16--------------16--|
|15------15--------------15------|15--------------15------15------|
|----14--------------------------|--------------------13----------|
|--------------------------------|--------------------------------|
|--------------------------------|--------------------------------|
 
 E   E   E   E   E   E   E   E   E   E   E   E   E   E   E   E
|--------------------------------|--------------------------------|
|------------16--17--16------16--|----16--17--16--------------16--|
|15------15--------------15------|15--------------15------15------|
|----14--------------------------|--------------------13----------|
|--------------------------------|--------------------------------|
|--------------------------------|--------------------------------|

 H               H                H               H
|--------------------------------|--------------------------------|
|--------------------------------|--------------------------------|
|--------------------------------|12--------------10--------------|
|13--------------8---------------|--------------------------------|
|--------------------------------|--------------------------------|
|--------------------------------|--------------------------------|
 
 H               H                H               H    
|--------------------------------|--------------------------------|
|--------------------------------|--------------------------------|
|--------------------------------|--------------------------------|
|----------------8---------------|9---------------11--------------|
|11------------------------------|--------------------------------|
|--------------------------------|--------------------------------|
 
 H               H                H               H
|--------------------------------|15------------------------------|
|16------------------------------|----------------18--------------|
|----------------15--------------|--------------------------------|
|--------------------------------|--------------------------------|
|--------------------------------|--------------------------------|
|--------------------------------|--------------------------------|
 
 H               H                H               H 
|--------------------------------|--------------------------------|
|--------------------------------|----------------14--------------|
|13--------------15--------------|16------------------------------|
|--------------------------------|--------------------------------|
|--------------------------------|--------------------------------|
|--------------------------------|--------------------------------|
 
 W                                W       
|--------------------------------|--------------------------------|
|16------------------------------|--------------------------------|
|--------------------------------|12------------------------------|
|--------------------------------|--------------------------------|
|--------------------------------|--------------------------------|
|--------------------------------|--------------------------------|
 
 H               H                Q       Q       H 
|--------------------------------|--------------------------------|
|--------------------------------|--------------------------------|
|--------------------------------|--------------------------------|
|13--------------11--------------|13------11----------------------|
|--------------------------------|----------------14--------------|
|--------------------------------|--------------------------------|

 Q.          Q       Q.           Q.          Q       Q.     
|--------------------------------|--------------------------------|
|--------------------------------|--------------------------------|
|------------6-------8-----------|9-----------8-------6-----------|
|8-------------------------------|--------------------------------|
|--------------------------------|--------------------------------|
|--------------------------------|--------------------------------|
 
 Q.          Q       Q.           Q.          Q       Q.         
|--------------------------------|--------------------------------|
|9-------------------------------|--------------------------------|
|------------9-------8-----------|6-----------8-------7-----------|
|--------------------------------|--------------------------------|
|--------------------------------|--------------------------------|
|--------------------------------|--------------------------------|
 
 Q.          Q       Q.           Q.          Q       Q.     
|--------------------------------|--------------------------------|
|--------------------------------|--------------------------------|
|------------4-------6-----------|7-----------6-------4-----------|
|6-------------------------------|--------------------------------|
|--------------------------------|--------------------------------|
|--------------------------------|--------------------------------|
 
 Q.          Q       Q.           Q.          H               E
|--------------------------------|--------------------------------|
|7-------------------------------|--------------------------------|
|------------7-------6-----------|4-----------6---------------L--o|
|--------------------------------|-------------------------------o|
|--------------------------------|--------------------------------|
|--------------------------------|--------------------------------|

Q.          Q       Q.           Q.          Q       Q.  
|--------------------6-----------|4-----------2-------1-----------|
|4-------------------------------|--------------------------------|
|------------3-------------------|--------------------------------|
|--------------------------------|--------------------------------|
|--------------------------------|--------------------------------|
|--------------------------------|--------------------------------|
 
 Q.          Q       Q.           Q.          Q       Q.       
|2-----------1-------------------|1-------------------------------|
|--------------------4-----------|------------4-------2-----------|
|--------------------------------|--------------------------------|
|--------------------------------|--------------------------------|
|--------------------------------|--------------------------------|
|--------------------------------|--------------------------------|
 
 E E  H                           E   E   E   Q
|--------------------------------|--------------------------------|
|2h4--L--------------------------|4---4---x---4-------------------|
|--------------------------------|3---3---x---3-------------------|
|--------------------------------|--------------------------------|
|--------------------------------|--------------------------------|
|--------------------------------|--------------------------------|
 
 
Login or Register to remove this ad.