Login or Register to remove this ad.

Goldenrod City (Pokémon Gold & Silver) Guitar Tab

Submitted: Sep 08, 2009 by GuitarGuy

4.81818
Average: 4.8 (22 votes)
Download | Listen
Game: Pokémon Gold & Silver
Composer(s): Junichi Masuda, Go Ichinose
Style: Arrangement, Fingerstyle
Series: Pokemon

AutoScroll: Slow | Medium | Fast
Gtr I (E A D G B E) - Goldenrod City
Tabbed by: GuitarGuy
Capo: 1


    Q=106
   3/4
    Gtr I
    E E E E E E E E E E E E E E E S S E E E E E E E E E E E E E E E E
||--0-------------------------------------------5-3-1-0-1-3-0---------|
||o-----1---3---0---1-0---0---------------1-------------------3-----0-|
||--------0-------0-----2---0-----0-1-2-----2-2-------------------0---|
||----2-------0-----------------0-------------------------------0-----|
||o-3---------------0---------2---------3-----------------------------|
||----------3---------------3---------1-------1-------3-------3-------|
    H       H       H       H         H       H       H       H


  13/4
   E E E E E E E E E E E E E E E S S E E E E E E E E E E E E E E E E
||-0-------------------------------------------5-3-1-----------------|
||-----1---3---0---1-0---0---------------1---------------0-1-3-----0-|
||-------0-------0-----2---0-----0-1-2-----2-2-------0-2---------0---|
||---2-------0-----------------0-------------------------------0-----|
||-3---------------0---------2---------3-----------------------------|
||---------3---------------3---------1-------1-------3-------3-------|
   H       H       H       H         H       H       H       H


   E E E E E E E E E E E E E E E S S E E E E E E E E E  E E E E E
||-------0-----------------------------------------------------------|
||-1-----------1---0-----3-----0-----------1---------0----3-----0----|
||-----0---0-----0-----0---0-----0-1-2-------2---2----------0-2------|
||---2-------2-------0-------0-----------3-----3---3----0------------|
||-3-----------------------------------3-----------------------------|
||-----------------3-----------------1---------------3---------------|
   W               W                 W               H.


   E E E E E E E E E E E E E E E S S E E E E E E E E E E E E E E E E
||-------0-------------------------------------------------0----------||-|
||-1-----------1---0-----3-----0-----------1---------0---3---3-1-0---o||-|
||-----0---0-----0-----0---0-----0-1-2-------2---2-----------------0--||-|
||---2-------2-------0-------0-----------3-----3---3---0--------------||-|
||-3-----------------------------------3-----------------------------o||-|
||-----------------3-----------------1---------------3-------3--------||-|
   W               W                 W               H       H




--------------------------------------------------------------------------------


Duration Legend
---------------
W - whole; H - half; Q - quarter; E - 8th; S - 16th; T - 32nd; X - 64th; a - acciaccatura
+ - note tied to previous; . - note dotted; .. - note double dotted
Uncapitalized letters represent notes that are staccato (1/2 duration)
Irregular groupings are notated above the duration line
Duration letters will always appear directly above the note/fret number it represents the
duration for.  Duration letters with no fret number below them represent rests.  Multi-
bar rests are notated in the form Wxn, where n is the number of bars to rest for.  Low
melody durations appear below the staff

Tablature Legend
----------------
 h   - hammer-on
 p   - pull-off
 b   - bend
 pb  - pre-bend
 r   - bend release (if no number after the r, then release immediately)
 /\  - slide into or out of (from/to "nowhere")
 s   - legato slide
 S   - shift slide
 - natural harmonic
[n]  - artificial harmonic
n(n) - tapped harmonic
 ~   - vibrato
 tr  - trill
 T   - tap
 TP  - trem. picking
 PM  - palm muting
\n/  - tremolo bar dip; n = amount to dip
 \n  - tremolo bar down
 n/  - tremolo bar up
/n\  - tremolo bar inverted dip
 =   - hold bend; also acts as connecting device for hammers/pulls
 <> - volume swell (louder/softer)
 x   - on rhythm slash represents muted slash
 o   - on rhythm slash represents single note slash

Misc Legend
-----------
 |  - bar
||  - double bar
||o - repeat start
o|| - repeat end
*|  - double bar (ending)
 :  - bar (freetime)
 $  - Segno
 &  - Coda
Tempo markers -  = BPM(8/16=s8/s16), where s8 = swing 8ths, s16 = swing 16ths



--------------------------------------------------------------------------------
Login or Register to remove this ad.

9 comments on Goldenrod City

Yay a Poketab :D

5

Your first arrangement? It's really nice, is it by any chance based off of Harrison Andrews Video? http://www.youtube.com/watch?v=jkyF_7meirc

Thanks for the comment!

Thanks for the comment! ^.^
Ummm no because the way I haven't seen his video, but I've seen it and it is kinda similar I guess. But he has a nice arrangement too. Other than that, thanks for the comment.

Very good work

5

Very good work

Thanks! It feels pretty good

Thanks! It feels pretty good to hear good comments from other people. It feels pretty good to hear comments about my first arrangement!

I Really Love This.Keep

5

I Really Love This.
Keep Making Guitar Tabs (:

very nice

5

This is a very nice arrangement I love it its easy and sounds really beautiful. You did a wonderful job on your first arrangement.

Excellent!

This is an excellent arrangement, just like your Madra and Pokemon Center tabs. Please, do keep posting your tabs here.

very good work but i think

5

very good work but i think you must play an Eminor instead of the second G in the first two lines

    E E E E E E E E E E E E E E E S S E E E E E E E E E E E E E E E E
||--0-------------------------------------------5-3-1-0-1-3-0---------|
||o-----1---3---0---1-0---0---------------1-------------------3-----0-|
||--------0-------0-----2---0-----0-1-2-----2-2-------------------0---|
||----2-------0-----------------2-------------------------------0-----|
||o-3---------------0---------2---------3-----------------------------|
||----------3---------------0---------1-------1-------3-------3-------|
    H       H       H       H         H       H       H       H

Great tab! Sounds great and

5

Great tab! Sounds great and feels so natural to play :)
https://soundcloud.com/mickegitarr/pokemon-gold-silver-goldenrod-city