Ads

Battle Tower (Pokémon Sword and Shield) Guitar Tab

Submitted: Nov 19, 2019 by soundtest (Last updated: Nov 30, 2019)

5
Average: 5 (1 vote)
Download | No audio :(
Game: Pokémon Sword and Shield
Composer(s): Minako Adachi; Go Ichinose
Style: Alternate picking, Transcription
Series: Pokemon

AutoScroll: Slow | Medium | Fast
[0:00]

e---------------------------------------|------------------------------5-10----
B--5---5---5----8-7-5----5---5----------|--5---5---5----8-7----------7---------
G----7---7----7--------7---7----7---7---|----7---7----7-----5------------------
D---------------------------------9-----|--------------------------------------
A---------------------------------------|--------------------------------------
E---------------------------------------|-------------------------------------- (x2)


[0:15]

e--------7-9---10-8-7-----|--------10-8-7-5---5-7-4---|--------7-9---10-8-7-----|--------10-8-7-5-7-5---------------
B--5-7-8--------------8---|--5-7-8--------------------|--5-7-8--------------8---|--5-7-8--------------7---7-5-5---5-
G-------------------------|---------------------------|-------------------------|-----------------------7-------7---
D-------------------------|---------------------------|-------------------------|-----------------------------------
A-------------------------|---------------------------|-------------------------|-----------------------------------
E-------------------------|---------------------------|-------------------------|-----------------------------------


[0:30]

e--10-8-7-5---------5-8-8-7-5-7-4---|--7-5---5---------------------5-7---7-10--
B-----------7---7-8-----------------|------8---7---5-7---5-7-9---9-------------
G-----------------------------------|------------7-----------------------------
D-----------------------------------|------------------------------------------
A-----------------------------------|------------------------------------------
E-----------------------------------|------------------------------------------

e--10-8-7-5-----7-10-12---14-14-12-10-14-12---7-4-----|----5------------------
B-----------7-------------------------------------5---|--8---7---5---5---7-5--
G-----------------------------------------------------|------------7---7------
D-----------------------------------------------------|-----------------------
A-----------------------------------------------------|-----------------------
E-----------------------------------------------------|-----------------------


[0:44]

e----5---------------------------|----5-----------5-7-7---|--------5---------5-10-8-7---5-------|----5------------
B--8---7---5---7---7-5-----------|--8---7---5---7---------|--5-7-8---7-----7--------------8-7---|--8---7---5---7--
G------------7---7-------7-4-----|------------7-----------|--------------7----------------------|------------7----
D----------------------------5---|------------------------|-------------------------------------|-----------------
A--------------------------------|------------------------|-------------------------------------|-----------------
E--------------------------------|------------------------|-------------------------------------|-----------------

e------------5-3-----------5-8-7--
B----6-5---6---------6-5----------
G--7---------------7--------------
D---------------------------------
A---------------------------------
E---------------------------------

e---------------------------------------|------------------------------5-10----
B--5---5---5----8-7-6-5-6-5-6--5--------|--5---5---5----8-7----------7---------
G----7---7----7------------------5-7----|----7---7----7-----5------------------
D---------------------------------------|--------------------------------------
A---------------------------------------|--------------------------------------
E---------------------------------------|--------------------------------------


[1:12]

e--------7-9---10-8-7-----|--------10-8-7-5---5-7-4---|--------7-9---10-8-7-----|--------10-8-7-5-7-5---------------
B--5-7-8--------------8---|--5-7-8--------------------|--5-7-8--------------8---|--5-7-8--------------7---7-5-5---5-
G-------------------------|---------------------------|-------------------------|-----------------------7-------7---
D-------------------------|---------------------------|-------------------------|-----------------------------------
A-------------------------|---------------------------|-------------------------|-----------------------------------
E-------------------------|---------------------------|-------------------------|-----------------------------------


[1:27]

e--10-8-7-5---------5-8-8-7-5-7-4---|--7-5---5---------------------5-7---7-10--
B-----------7---7-8-----------------|------8---7---5-7---5-7-9---9-------------
G-----------------------------------|------------7-----------------------------
D-----------------------------------|------------------------------------------
A-----------------------------------|------------------------------------------
E-----------------------------------|------------------------------------------

e--10-8-7-5-----7-10-12---14-14-12-10-14-12---7-4-----|----5------------------
B-----------7-------------------------------------5---|--8---7---5---5---7-5--
G-----------------------------------------------------|------------7---7------
D-----------------------------------------------------|-----------------------
A-----------------------------------------------------|-----------------------
E-----------------------------------------------------|-----------------------


[1:42]

e----5---------------------------|----5-----------5-7-7---|--------5---------5-10-8-7---5-------|----5-------------------
B--8---7---5---7---7-5-----------|--8---7---5---7---------|--5-7-8---7-----7--------------8-7---|--8---7---5---7---7-5---
G------------7---7-------7-4-----|------------7-----------|--------------7----------------------|------------7---7-------
D----------------------------5---|------------------------|-------------------------------------|------------------------
A--------------------------------|------------------------|-------------------------------------|------------------------
E--------------------------------|------------------------|-------------------------------------|------------------------ (x2)


[2:11]

e--------------------------------------|------------------------5---7---|----------------------5-7-5-7-5-7---5-------|--------------------------------
B--5---5---5-----8-7-5---5---5---------|--5---5---5-----8-7-5-----5-----|------5---5---5-----8-----------------8-7---|--5---5---5-----8-7-5---5---5---
G----7---7-----7-------7---7-------7---|----7---7-----7-------7---------|--7-8---7---7-----7-------------------------|----7---7-----7-------7---7-----
D--------------------------------9-----|--------------------------------|--------------------------------------------|--------------------------------
A--------------------------------------|--------------------------------|--------------------------------------------|--------------------------------
E--------------------------------------|--------------------------------|--------------------------------------------|--------------------------------
Login or Register to remove this ad.