Ads

Route 101 (Pokémon Ruby & Sapphire) Guitar Tab

Submitted: Mar 12, 2023 by Busking4Scrap (Last updated: Mar 12, 2023)

0
Download | Listen
Game: Pokémon Ruby & Sapphire
Composer(s): Junichi Masuda, Go Ichinose, Morikazu Aold
Style: Fingerstyle
Series: Pokemon

AutoScroll: Slow | Medium | Fast
Title: Route 101
Artist: Pokemon Ruby & Sapphire
Album: 
Author: 


Track 1: 

E|-------|-----------------------------------|-----------------------------------------|
B|----0--|-----------------------------------|-----------------------------------0-----|
G|-2-----|-2---2---0-----------------0---2---|-0---------------------------------------|
D|-------|-0-----------4---------4-----------|---------------4--------2----------------|
A|-------|-----------------0-----------------|-2-----2--2--------2-2-------2-----------|
E|-------|-----------------------------------|-----------------------------------------|


E|------------------------|--------------------------------------|---------------------------------|
B|-------3----------------|-----------------------------------0--|---------------------------------|
G|-2-------------------0--|-2--0--2--0--2---0--------------2-----|-2---2---0---------------0---2---|
D|------------------4-----|--------------------4--2--------------|-0-----------4-------4-----------|
A|-0----------------------|-0-----------0---------0--------------|-----------------0---------------|
E|------------------------|--------------------------------------|---------------------------------|


E|-----------------------------------------|------------------------|--------------------------------------|
B|-----------------------------------0-----|-------3----------------|--------------------------------2--3--|
G|-0---------------------------------------|-2-------------------0--|-2--0--2--0--2---0--------------------|
D|---------------4--------2----------------|------------------4-----|--------------------4--2--------------|
A|-2-----2--2--------2-2-------2-----------|-0----------------------|-0-----------0---------0--------------|
E|-----------------------------------------|------------------------|--------------------------------------|


E|-----------------------------|-------------------------|--------------------------|
B|-0---0---0---0--2--3---------|----------------0--------|---------------------0----|
G|-----------------------------|-2---2---2---2-----2-----|-0--------------0---------|
D|------------------------0----|-0-------0---------0-----|----------2--4------------|
A|-----------------------------|-------------------------|------4-------------------|
E|-3-------3---------3---------|-------------------------|--------------------------|


E|-------------------------|-----------------------------|-2---3---2---2--0--------|
B|----------------0--------|-0---0---0---0--2--3---------|-------------------3-----|
G|-2---2---2---2-----2-----|------------------------0----|-------------------------|
D|-0-------0---------0-----|-----------------------------|-0-------0---------0-----|
A|-------------------------|-----------------------------|-------------------------|
E|-------------------------|-3-------3---------3---------|-------------------------|


E|------------------------|-------------|
B|-3-----1------------3---|-2-----------|
G|-----------3------------|-------------|  Repeat 
D|----------------3-------|-------------|
A|------------------------|-0-----------|
E|-3------------------3---|-------------|
Login or Register to remove this ad.