Ads

Littleroot Town (Pokémon Ruby & Sapphire) Guitar Tab

Submitted: May 17, 2020 by FocusShallNotFail (Last updated: May 21, 2020)

5
Average: 5 (3 votes)
Download | No audio :(
Game: Pokémon Ruby & Sapphire
Composer(s): Junichi Masuda, Go Ichinose, Morikazu Aold
Style: Arrangement, Fingerstyle
Series: Pokemon

Click here for a video example.

AutoScroll: Slow | Medium | Fast
Title: Pokémon Ruby/Sapphire/Emerald - Littleroot Town
Artist: 
Album: 
Author: Arrangement: RCakraa/Eduardo Barelli


Track 1: Tab by Eduardo Barelli


Track 2: Track 2

E|---------------------------------|-0---------------0-------0---1---|-3-----------5---------------4---|
B|-------------------------1---3---|-------------3-------3-----------|---------0-------5-------5-------|
G|---------------------0-----------|---------0-----------------------|-----0---------------------------|
D|---------------------------------|-----2---------------------------|---------------------------------|
A|---------------------------------|-3-----------------------3-------|---------------------7-----------|
E|---------------------------------|---------------------------------|-0---------------4---------------|


E|-5-------7----5---------------|-------------0---5------------|-----------------3---1---1-------|
B|-5-------5----5-------5---3---|-1---0---1--------------------|-1-----------------------1---5---|
G|-----5------------2-----------|----------------------2---4---|-2-----------2-------------------|
D|------------------------------|------------------------------|---------3-----------------------|
A|------------------------------|-0----------------------------|-----3---------------------------|
E|-5------------0---------------|-----------------2------------|-1-------------------1---1-------|


E|--------------5---0---0-------|---------------------------------|-------------------------3---1---|
B|-1--------------------1---3---|-1-----------------------0-------|-0-----------1---3---------------|
G|-2----2-----------------------|-0-----------0---------------2---|-0-----------0-------0-----------|
D|-0--------0-------0---0-------|---------0-----------0-----------|---------0-----------------------|
A|------------------------------|-----2-----------2---------------|-----2---------------------------|
E|------------------------------|-3-------------------------------|-3-------------------------------|


E|-0---------------0-------0---1---|-----3-------5---------------4---|-5-------7----8-------0-------|
B|-------------3-------3-----------|---------0-------5---3---5-------|-5-------5----5-----------3---|
G|---------0-----------------------|-----0---------------------------|-----5------------2-----------|
D|-----2---------------------------|---------------------------------|------------------------------|
A|-3-----------------------3-------|---------------------------------|------------------------------|
E|---------------------------------|-0---------------4---------------|-5------------0---------------|


E|-------------0---5------------|-----------------3---1---1-------|--------------5---0---0-------|
B|-1---0---1--------------------|-1-----------------------1---5---|-1--------------------1---3---|
G|----------------------2---4---|-2-----------2-------------------|-2----2-----------------------|
D|------------------------------|---------3-----------------------|-0--------0-------0---0-------|
A|-0----------------------------|-----3---------------------------|------------------------------|
E|-----------------2------------|-1-------------------1---1-------|------------------------------|


E|---------------------------------|----------------------0---1---|-3---------------4---0---0-------|
B|-1-----------------------0-------|-0--------1---3---------------|---------0-------------------3---|
G|-0-----------0---------------2---|-0------------0---0-----------|-----0-------0-----------1-------|
D|---------0-----------0-----------|------0-----------------------|---------------------2-----------|
A|-----2-----------2---------------|------------------------------|---------------------------------|
E|-3-------------------------------|-3------------1---------------|-0---------------4---------------|


E|-----------------------------0---|--------------------------------|-------------------------0---1---|
B|-1---1-------0-----------1-------|-3----------------0--1------1---|-0---0-------1---3---------------|
G|-2---2-----------2---------------|-2----2-----------------2-------|-0---0-----------0---------------|
D|---------2-----------------------|-0--------0---------------------|---------0-----------0-----------|
A|-0-------------------0-----------|--------------------------------|---------------------------------|
E|---------------------------------|--------------2-----------------|-3---3-----------1---------------|


E|-3-----------------------4---7---|-10--8---7---8-----------8---12--|-10---------------7--8------8---|
B|---------0-----------5-----------|-10--------------10--------------|-10---10----------------10------|
G|-----0-------0-------------------|---------------------------------|-7--------7---------------------|
D|---------------------------------|---------------------7-----------|--------------------------------|
A|---------------------------------|-0-------------------------------|--------------9-----------------|
E|-0---------------4---------------|---------------------------------|--------------------------------|


E|-7---7-------8---10---1-------|-0---------------0-------0---1---|-3-----------5---------------4---|
B|-----------------8--------3---|-------------3-------3-----------|---------0-------5-------5-------|
G|---------7--------------------|---------0-----------------------|-----0---------------------------|
D|-5---5-----------5------------|-----2---------------------------|---------------------------------|
A|------------------------------|-3-----------------------3-------|---------------------7-----------|
E|------------------------------|---------------------------------|-0---------------4---------------|


E|-5-------7----5---------------|-------------0---5------------|-----------------3---1---1-------|
B|-5-------5----5-------5---3---|-1---0---1--------------------|-1-----------------------1---5---|
G|-----5------------2-----------|----------------------2---4---|-2-----------2-------------------|
D|------------------------------|------------------------------|---------3-----------------------|
A|------------------------------|-0----------------------------|-----3---------------------------|
E|-5------------0---------------|-----------------2------------|-1-------------------1---1-------|


E|--------------5---0---0-------|---------------------------------|-------------------------3---1---|
B|-1--------------------1---3---|-1-----------------------0-------|-0-----------1---3---------------|
G|-2----2-----------------------|-0-----------0---------------2---|-0-----------0-------0-----------|
D|-0--------0-------0---0-------|---------0-----------0-----------|---------0-----------------------|
A|------------------------------|-----2-----------2---------------|-----2---------------------------|
E|------------------------------|-3-------------------------------|-3-------------------------------|


E|-0---------------0-------0---1---|-----3-------5---------------4---|-5-------7----8---------------|
B|-------------3-------3-----------|---------0-------5---3---5-------|-5-------5----5-------5---3---|
G|---------0-----------------------|-----0---------------------------|-----5------------2-----------|
D|-----2---------------------------|---------------------------------|------------------------------|
A|-3-----------------------3-------|---------------------------------|------------------------------|
E|---------------------------------|-0---------------4---------------|-5------------0---------------|


E|-------------0---5------------|-----------------3---1---1-------|--------------5---0---0-------|
B|-1---0---1--------------------|-1-----------------------1---5---|-1--------------------1---3---|
G|----------------------2---4---|-2-----------2-------------------|-2----2-----------------------|
D|------------------------------|---------3-----------------------|-0--------0-------0---0-------|
A|-0----------------------------|-----3---------------------------|------------------------------|
E|-----------------2------------|-1-------------------1---1-------|------------------------------|


E|---------------------------------|------------------------------|--------|
B|-1-----------------------0-------|-0--------1---3-------1---3---|-5------|
G|-0-----------0---------------2---|-0------------0---0-----------|-5------|
D|---------0-----------0-----------|------0-----------------------|-5------|
A|-----2-----------2---------------|------------------------------|-3------|
E|-3-------------------------------|-3------------1---------------|--------|

Login or Register to remove this ad.

2 comments on Littleroot Town

awesome tab brother, thanks

5

awesome tab brother, thanks for sharing

Awesome!

5

Sounds a little more accurate if you add a capo on 5, but a fantastic tab.