Ads

Route 2 (Pokémon Red & Blue & Yellow) Guitar Tab

Submitted: Feb 18, 2014 by Basisti94 (Last updated: Feb 18, 2014)

5
Average: 5 (7 votes)
Download | Listen
Game: Pokémon Red & Blue & Yellow
Composer(s): Junichi Masuda
Style: Arrangement, Fingerstyle
Series: Pokemon

AutoScroll: Slow | Medium | Fast
                 Route 2
                                
Pokemon Red/Blue 
Junichi Masuda
Guitar Arrangement by Basisti94 (Miro Laaksonen)
18.2.2014

-----------------------------------
The almighty Helix Fossil made me do this.
Rest in piece ABBBBBBK( and JLVWNNOOOO ;_;
-----------------------------------


Tempo ~ 130

     S S Q    E  S S    E  Q    S S E  E  Q       E  Q    S S E  E  Q     
E||------------------|-------------------------|-------------------------|
B||------------------|--1----------------------|-------------------------|
G||--0-3-4-------2-4-|-------------------------|-------------------------|
D||--2-4-5-------3-5-|-------------------------|-------------------------|
A||-----------0------|-------------------------|-------------------------|
E||------------------|--3--3----3-3-3--3--3----|--3--3----3-3-3--3--3----|


    ^                                                                           
    E  Q    S S E  E  Q       E  E  E  E  E  E  E  E     E  Q    E  E  E  Q     
|---------------0----------|-----------3--1--0--------|-------------1----------|
|---1---------1------------|--------1-----------3--1--|--3---------------------|
|*--0-------0---------0----|-----0--------------------|-------------------3----|
|*--2--------------2-------|--------------------------|----------------3-------|
|------3--------3----------|-----3-----------------0--|-----1------------------|
|---0-------0--------------|--0--------0-----0--------|--1-------1--1----------|


  E  Q    E  E  E  E  E     E  Q    S S E  E  Q       E  E  E  E  E  E  E  E   
-------------------------|--------------0----------|-----------3--1--0--------|
-------------------------|--1---------1------------|--------1-----------3--1--|
--3----------2-----------|----------0---------0----|-----0--------------------|
----------------------3--|-----------------2-------|--------------------------|
-----1-------------1-----|-----3--------3----------|-----3-----------------0--|
--1-------1--1--1--------|--0-------0--------------|--0--------0-----0--------|


  E  Q    E  E  E  Q       E  Q    E  E  E  E  S S    E  E  E  E  E  E  E  S S  
-------------1----------|--------------------------|--0-----0------------------|
--3---------------------|-------------3--------1-3-|-----3-----1-----------0-1-|
-------------------3----|--3----------------3------|--------------0------------|
----------------3-------|----------------3---------|---------------------------|
-----1------------------|-----1--------------------|-----3--------------3------|
--1-------1--1----------|--1-------1--1------------|--3--------3-----3---------|


                                |---3--|                 
  E  Q    E  E  E  E  S S    E  S Q    S E  E  E  E  E   
----------3-----------1-0-|--1----0---------------------|
--3-----------------------|------------1----L-----------|
-----0--------------------|--------------------------2--|
-----0-------------0------|-----------------------3-----|
----------------2---------|-----3--------------3--------|
--3-------3--3------------|--1-----------1--1-----------|


                              ^                  
  E  Q    E  E  E  E  E       W                  
--------------------------||-------------------||
-------------0------------||--1----------------||
--2----------------------*||--0----------------||
-------------------3-----*||--2----------------||
-----0----------0-----0---||--3----------------||
--1-------1--1------------||--0----------------||




Duration Legend
---------------
W - whole
H - half
Q - quarter
E - 8th
S - 16th
T - 32nd
X - 64th
. - note dotted
|-n-|  - n-tuplets


Tablature Legend
----------------
L - tied note
x - dead note
g - grace note
(n) - ghost note
> - accentuded note
NH - natural harmonic
AH - artificial harmonic
TH - tapped harmonic
SH - semi harmonic
PH - pitch harmonic
h - hammer on
p - pull off
b - bend
S - shift slide
s - legato slide
/ -  slide into from below or out of upwards
\ -  slide into from above or out of downwards
~ - vibrato
W - wide vibrato
tr - trill
TP - tremolo picking
T - tapping
S - slap
P - pop
< - fade in
^ - brush up
v - brush down
Login or Register to remove this ad.

2 comments on Route 2

Oh all the memories...

5

They come flooding back like it was only yesterday. Thank you for this tab :)

Wonderful!

5

Helix be praised!