Lavender Town (Backwards) (Pokémon Red & Blue & Yellow) Guitar Tab

Submitted: Jan 08, 2014 by DjVinylBrony

1.666665
Average: 1.7 (3 votes)
Download | Listen
Game: Pokémon Red & Blue & Yellow
Composer(s): Junichi Masuda
Style: Transcription
Series: Pokemon

AutoScroll: Slow | Medium | Fast
Lavender Town Backwards Guitar Tab
This would be lavender town if it was played backwards
Timeing might be off as usual!

||------7----
||---8------8
||5---------- x4
||-----------
||-----------
||-----------

||------7--------7------------
||---------7--8-----7--7--8--8
||5--5------------------------
||----------------------------
||----------------------------
||----------------------------

||------7---------------------
||---------5--7--8--5--5--8--8
||6--6------------------------
||----------------------------
||----------------------------
||----------------------------

||8--8--7--------7------------
||---------7--8-----7--7--8--8
||----------------------------
||----------------------------
||----------------------------
||----------------------------

||------7---------------------
||---------5--7--8--5--5--8--8
||6--6------------------------
||----------------------------
||----------------------------
||----------------------------
Login or Register to remove this ad.

1 comment on Lavender Town (Backwards)

There are already Lavender

There are already Lavender Town tabs on here, why not just play those backwards instead of having a separate tab like this?