Ads

Lavender Town (Pokémon Red & Blue & Yellow) Guitar Tab

Submitted: Jul 20, 2018 by laoise

5
Average: 5 (3 votes)
Download | Listen
Game: Pokémon Red & Blue & Yellow
Composer(s): Junichi Masuda
Style: Arrangement, Fingerstyle
Series: Pokemon

AutoScroll: Slow | Medium | Fast
Pokemon Red/Blue/Yellow - Lavender Town                                   
Arranged by Laoise Earle

     E  E  E  E  E  E  E  E     E  E  E  E  E  E  E  E       E  E  E  E  E  E  E  E   
E||--------------------------|--------------------------||---3-----3-----0-----0-----|
B||--------0-----------0-----|--------0-----------0-----||---------0-----------0-----|
G||-----0-----0-----0-----0--|-----0-----0-----0-----0--||*-----0-----0-----0-----0--|
D||--------------------------|--------------------------||*--------------------------|
A||--3-----------3-----------|--3-----------3-----------||---3-----------3-----------|
E||--------------------------|--------------------------||---------------------------|


  E  E  E  E  E  E  E  E     E  E  E  E  E  E  E  E     E  E  E  E  E  E  E  E   
--3--2--0--7--------------|--3-----3-----2-----2-----|--7--------7--8-----8-----|
--------0-----2-----2-----|--------0-----------0-----|-----8--7-----------0-----|
-----0-----0-----0-----0--|-----0-----0-----0-----0--|-----0-----0-----0-----0--|
--------------------------|--------------------------|--------------------------|
--3-----------3-----------|--3-----------3-----------|--------------------------|
--------------------------|--------------------------|--8-----------8-----------|


  E  E  E  E  E  E  E  E     E  E  E  E  E  E  E  E     E  E  E  E  E  E  E  E   
--3-----3-----0-----0-----|--3--2--0--7--------------|--3-----3-----2-----2-----|
--------0-----------0-----|--------0-----2-----2-----|--------0-----------0-----|
-----0-----0-----0-----0--|-----0-----0-----0-----0--|-----0-----0-----0-----0--|
--------------------------|--------------------------|--------------------------|
--3-----------3-----------|--3-----------3-----------|--3-----------3-----------|
--------------------------|--------------------------|--------------------------|


  E  E  E  E  E  E  E  E     E  E  E  E  E  E  E  E     E  E  E  E  E  E  E  E     
--7--------7--8-----8-----|--0-----------------------|--------------0--------0---||
-----8--7-----------0-----|--0-----0-----3-----0-----|--1-----0--------1--0------||
-----0-----0-----0-----0--|-----0-----0-----0-----0--|-----0-----0-----0-----0--*||
--------------------------|--------------------------|--------------------------*||
--------------------------|--3-----------3-----------|--3-----------3------------||
--8-----------8-----------|--------------------------|---------------------------||




Duration Legend
---------------
W - whole
H - half
Q - quarter
E - 8th
S - 16th
T - 32nd
X - 64th
. - note dotted
|-n-|  - n-tuplets


Tablature Legend
----------------
L - tied note
x - dead note
g - grace note
(n) - ghost note
> - accentuded note
NH - natural harmonic
AH - artificial harmonic
TH - tapped harmonic
SH - semi harmonic
PH - pitch harmonic
h - hammer on
p - pull off
b - bend
br - bendRelease
pb - preBend
pbr - preBendRelease
brb - bendReleaseBend
\n/ - tremolo bar dip
\n - tremolo bar dive
-/n - tremolo bar Release up
/n\ - tremolo bar inverted dip
/n - tremolo bar return
-\n - tremolo bar Release down
S - shift slide
s - legato slide
/ -  slide into from below or out of upwards
\ -  slide into from above or out of downwards
~ - vibrato
W - wide vibrato
tr - trill
TP - tremolo picking
T - tapping
S - slap
P - pop
< - fade in
^ - brush up
v - brush down
Login or Register to remove this ad.

1 comment on Lavender Town

Best Lavender Town

5

Best Lavender Town arrangement I've seen. Good job!