Let's Go Home (Pokémon Omega Ruby and Alpha Sapphire) Guitar Tab

Submitted: Jan 23, 2015 by Reuben6

5
Average: 5 (1 vote)
Download | Listen
Game: Pokémon Omega Ruby and Alpha Sapphire
Composer(s): Junichi Masuda, Go Ichinose, Hitomi Sato, Shota Kageyama, Minako Adachi, Morikazu Aoki, Satoshi Nohara, Hideaki Kuroda
Style: Arrangement, Fingerstyle
Series: Pokemon

AutoScroll: Slow | Medium | Fast
Song: Let's Go Home
Game: Pokémon Omega Ruby and Alpha Sapphire
Composer: Shota Kageyama, Go Ichinose
Tabbed by: Reuben6
Date: 19/01/2015

Standard Tuning

E|----------------0----|-2----3----5----5----|------3-------2---------3-----2-----|
B|-----------3---------|---------------------|------------------------------------|
G|---------------------|---------------------|------------------------------------|
D|---------------------|-0-------------------|------------------------------------|
A|---------------------|---------------------|------------------------------------|
E|---------------------|---------------------|------------------------------------|


E|-0-------------------|-2-------------------------|---------------------|------------------------|
B|---------------------|-----------0---0-------0---|-3---------3---------|-3---------3----0---3---|
G|---------------------|-------------------2-------|-----------0---------|-----------0------------|
D|---------------------|---------------------------|------0---------0----|------0-------------0---|
A|-0-------------------|---------------------------|---------------------|------------------------|
E|---------------------|---------------------------|-3-------------------|-2----------------------|


E|------5----3----2----|-----------0---------|----------------10---|---------------------|
B|------3----2----3----|-----------2---------|-7----8----10--------|------7----8----7----|
G|---------------------|------2--------------|---------------------|---------------------|
D|---------------------|---------------------|-0-------------------|---------------------|
A|---------------------|-0-------------------|---------------------|---------------------|
E|-0-------------------|---------------------|---------------------|---------------------|


E|---------------------|-5---------3-------5---3---|-2---------2---------|-2---------2------------|
B|-5-------------------|---------------------------|---------------------|----------------0---3---|
G|---------------------|---------------------------|-----------4---------|-----------2------------|
D|---------------------|---------------------------|------4---------4----|------2---------2-------|
A|-0-------------------|---------------------------|-2-------------------|-0----------------------|
E|---------------------|---------------------------|---------------------|------------------------|


E|------5----3----2----|------3---2---0---------|-2-------------------|----------------2----|
B|---------------------|------------------------|-3--------------3----|------3--------------|
G|-----------0---------|------------------------|-2---------2---------|-2---------2---------|
D|------0---------0----|------------------------|-0----0--------------|---------------------|
A|---------------------|-0------------4---------|---------------------|---------------------|
E|-3-------------------|------------------------|---------------------|---------------------|


E|-2-------------------|----------------3---2---|-0-------------------|-5----3----2----0----|
B|-3--------------3----|------3-----------------|-2--------------2----|------2---------2----|
G|-4---------4---------|-4---------4------------|-2---------2---------|-2---------2---------|
D|-4----4--------------|------------------------|-2----2--------------|---------------------|
A|-2-------------------|------------------------|-0-------------------|---------------------|
E|---------------------|------------------------|---------------------|---------------------|


E|-3--------------3----|-2--------------5----|-2-------------------|-----------2---------|
B|-----------0---------|-----------4---------|---------------------|-3-------------------|
G|------0---------0----|------4---------4----|----------------0----|-----------0---------|
D|---------------------|---------------------|-----------2---------|------2---------2----|
A|-3-------------------|-2-------------------|------2--------------|-2-------------------|
E|---------------------|---------------------|-0-------------------|---------------------|


E|-0-------------------|-0---------5---------|-2-------------------|-2---------7---------|
B|---------------------|---------------------|---------------------|---------------------|
G|----------------0----|-0---------0---------|----------------0----|-----------0---------|
D|-----------0---------|------0---------0----|-----------2---------|------2---------2----|
A|------2--------------|-2-------------------|------2--------------|-2-------------------|
E|-3-------------------|---------------------|-0-------------------|---------------------|


E|-5--------------3-----2--3--|-5-------------------|
B|----------------2-----------|-----------2---------|
G|-----------2----------------|------2--------------|
D|------2---------------------|-2-------------------|
A|-0--------------------------|---------------------|
E|----------------------------|---------------------|



Login or Register to remove this ad.