Ads

Goodnight (Pokémon Mystery Dungeon: Explorers of Time / Darkness / Sky) Guitar Tab

Submitted: Jun 15, 2013 by auriplane (Last updated: Oct 18, 2014)

5
Average: 5 (1 vote)
Download | Listen
Game: Pokémon Mystery Dungeon: Explorers of Time / Darkness / Sky
Composer(s): Arata Iiyoshi, Hideki Sakamoto, Keisuke Ito, Ken-ichi Saito, Yoshihiro Maeda
Style: Arrangement, Fingerstyle
Series: Pokemon

AutoScroll: Slow | Medium | Fast
                                  Pokemon Mystery Dungeon EoS  - Goodnight
            Composers: Arata Iiyoshi, Hideki Sakamoto, Keisuke Ito, Ken-ichi Saito, Yoshihiro Maeda

                                   Tabbed by Auriplane ([email protected])



Tune your G string down to F#, and put a capo on 6.


      E  S S E  Q.     Q       E  E  E  Q.     Q       E  S S E  Q.     Q       E  E  E  Q.     Q
E |-------------------------|-----------0------2----|--4----0----L-----------|-----------0-----------|
B |---4----0----L-----------|-----------3------L----|------------2------2----|--0---------------0----|
F#|*------------2------2----|--3-----3--------------|---------2--------------|-----------0------L----|
D |*---------1--------------|-----4-----------------|-----2------------------|--------2--------------|
A |------2------------------|--2--------------------|--0---------------------|-----2-----------------|
E |---0---------------------|-----------------------|------------------------|--4--------------------|


     E  E  E  Q    E.  E.     E  S S E  Q    Q    E     E  E  E  E  E  E  E  E     E  S S E  Q.     Q
E |----------------0---2---|--3---------0------------|--------------------------|------------------------|
B |-----------1----L-------|-------3----0---------0--|-----------4-----0--2--4--|--4----0----------------|
F#|--3-----3---------------|---------1-------1-------|--3-----3--5--3--2--3--5--|------------2------2----|
D |-----2------------------|-----0-------------------|-----4--------4-----------|---------1--------------|
A |--4--------3----L-------|--2---------3----L----L--|--5--------6--------------|-----2------------------|
E |------------------------|-------------------------|--------------------------|--0---------------------|


     E  E  E  Q.     Q       E  S S E  Q.     Q       E  E  E  Q.     Q       E  E  E  Q    Q.
E |-----------0------2----|--4----0----L-----------|-----------0-----------|-----------------------|
B |-----------3------L----|------------2------2----|--0---------------0----|-----------4----0------|
F#|--3-----3--------------|---------2--------------|-----------0------L----|--3-----3--3----0------|
D |-----4-----------------|-----2------------------|--------2--------------|-----2-----1----4------|
A |--2--------------------|--0---------------------|-----2-----------------|--4--------------------|
E |-----------------------|------------------------|--4--------------------|-----------------------|


                                        ^              (1st ending)
     E  S S E  Q    Q.        E  S S E  Q    E  E  E     Q.     Q.     Q       Q.     Q.     Q
E |------------0----L------|--4----0----5----4--0--2--|--4------5------2----|--4------5------7-----||
B |-------0----3----L------|---------2--0----4--2--4--|--5------5------5----|--5------5------5-----||
F#|--2---------5----L------|-----3------3----5--------|--5------3-----------|---------------------*||
D |--2------2--------------|--------------------------|----------------4----|--2------2------2----*||
A |-----2------------------|------------2-------------|---------------------|----------------------||
E |--0---------3----L------|--2-----------------------|--0------0------0----|--0------0------0-----||


   (2nd ending)            ^
     Q.     Q.     Q       W                   W
E |--4------5------2----|--4----------------|--L----------------||
B |--5------5------5----|--0----------------|--L----------------||
F#|--5------3-----------|--2----------------|--L----------------||
D |----------------4----|--2----------------|--L----------------||
A |---------------------|--2----------------|--L----------------||
E |--0------0------0----|--0----------------|--L----------------||




Duration Legend
---------------
    W   whole
    H   half
    Q   quarter
    Q.  quarter (dotted)
    E   eighth
    E   eighth (dotted)
    S   sixteenth


Tablature Legend
----------------
    L - tied note
    ^ - downstroke
Login or Register to remove this ad.

1 comment on Goodnight

Nice job!

Sweet! Going to try and learn this ASAP :D