Azalea Town (Pokémon Gold & Silver) Guitar Tab

Submitted: Jul 29, 2016 by GuitarGuy

4.875
Average: 4.9 (8 votes)
Download | Listen
Game: Pokémon Gold & Silver
Composer(s): Junichi Masuda, Go Ichinose
Style: Arrangement, Fingerstyle
Series: Pokemon

AutoScroll: Slow | Medium | Fast
Azalea Town [Pokemon Gold, Silver, Crystal]
Arranged by: Romyl Lopez a.k.a GuitarGuy
Capo: 1
Standard Tuning: E A D G B E
                                                                                  
    H           Q.     S S     E  E  E  E  E  E  E  E     E  E  E  E  E  E  Q         E  E  E  E  E  E  E  E
*|-------------------------||--------------------------|--------------------------||-----------------------0--|
*|-------------------------||o-3--3--3--1--1--1--1--1--|--0--0--0--1--1--1--------||o-1-----0--1--L--3--x-----|
*|-----------------------0-||--0--------0--------0-----|--0--------0--------0-----||--0--0-----0--------------|
*|-------------------------||--------------------------|--------------------------||--------------------------|
*|-------------------------||o-3--------3--------3-----|--3--------3--------3-----||o-3-----3--3--------------|
*|-------------------------||--------------------------|--------------------------||--------------------------|

    Q     E  E  E  E  E  E     E  E  E  Q     E  E  E     E  E  E  E  E  E  E  E     E  E  E  E  E  E  E  E
*|--3-----x--0-----------0--|--------------------------|--------------------------|--1--------------1--0-----|
*|--0--------0-----3--x-----|--1-----------------------|-----------------1-----1--|--1--------1-----------3--|
*|--------------------------|--0-----0-----------0-----|--------------------2-----|--------2-----------------|
*|--------------------------|-----2-----------2--------|--------------------------|-----3--------------------|
*|--------------------------|--0-----------------------|-----0--------------------|--------------------------|
*|--0--------0--0-----------|-----------4-----------3--|--L-----3--2--L-----------|--1-----------1-----------|
                               ___________________________________________________    ________________________
                              |1.                                                    |2.
    Q     E  E  E  E  E  E     Q     E  E  E  E  E  E     E  E  E  E  E  E  E  E      Q     E  E  E  E  E  E
*|--------------------------|--------------------------|-----------------3--1-----||--------------------------|
*|--1-----x--0-----0--x--1--|--3-----x-----------1-----|--0--1--x--3--L--------3-o||--3-----x--------------1--|
*|--2--------2--------------|--0--------0-----------0--|--0--------0--------------||--0--------0--------------|
*|--------------------------|--------------------------|--------------------------||--------------------------|
*|--------------------------|--------------------------|-------------------------o||--------------------------|
*|--2--------2--2-----------|--3--------3--3--3--L-----|--3--------3--3-----------||--3--------3--3--3--L-----|


    E  E  E  E  E  E  E  E     E  E  E  E  E  E  E  E     E  E  E  E  E  E  E  E     E  E  E  E  E  E  E  E
*|-----------3--L-----1--0--|-----------3-----1--x--0--|-----0--------------------|-----------3-----4--x--7--|
*|--0-----x--0--------------|--3--1--0--0--------------|--3-----3--1--L-----x-----|--3--1--0--0--------------|
*|--0--0-----------0--------|--0-----------------------|--0--------0-----0--------|--0-----------------------|
*|--------------------------|--------------------------|--------------------------|--------------------------|
*|--------------------------|--------------------------|--0--------0--0--------0--|--------------------------|
*|--3--------3--3-----------|--0--------0--0-----------|--------------------------|--0--------0--0-----------|


    E  E  E  E  E  E  E  E     E  E  E  E  E  E  E  E     E  E  E  E  E  E  E  E     Q     E  E  E  E  E  E
*|--7--8--7-----------------|--0--------0--------------|--0--------0-----5--x--7--|--3-----x--3--L-----------|
*|-----------5--------------|-----3-----------3--x-----|-----3--------------------|--3--------3--L-----3-----|
*|--5--------------7--x--5--|--------5--------------5--|--------5-----------------|-----------------4--------|
*|--------------------------|--3--------3--3-----------|--4--------4--4-----------|--------------------------|
*|--------------------------|--------------------------|--------------------------|--------------------------|
*|--5--------5--5-----------|--------------------------|--------------------------|--3--------3--3--------3--|


    Q     E  E  E  E  E S S
*|---------------------------||----*|
*|------------------------0-o||----*|
*|--4-----x--4-----4--x-0----||----*|
*|--5--------5---------------||----*|
*|--------------------------o||----*|
*|--3--------3--3------------||----*|
Login or Register to remove this ad.

1 comment on Azalea Town

nice job

4

i feel like it sounds better if you move every note up by a fret but great job