Ads

Undella Town (Spring/Autumn/Winter) (Pokémon Black and White) Guitar Tab

Submitted: Jan 22, 2021 by H.F. (Last updated: Jan 27, 2021)

4.333335
Average: 4.3 (3 votes)
Download | Listen
Game: Pokémon Black and White
Composer(s): Junichi Masuda, Go Ichinose, Hitomi Sato, Shota Kageyama, Minako Adachi, Morikazu Aoki, Satoshi Nohara
Style: Arrangement, Fingerstyle
Series: Pokemon

AutoScroll: Slow | Medium | Fast
Title: Undella Town (Spring/Autumn/Winter)
Album: Pokémon Black/White
Music: Hitomi Sato
Tabber: H.F.

Tempo = 70

Legend
L - tied note


E |--------0-------|-------|----------------|--------0-------|-------|
B |--0-------------|-------|-----3--2-------|--0-------------|-------|
G |-----2-----2L---|--2----|----------------|-----2----------|-------|
D |--0-------------|-------|-----------2----|--0--------2L---|--2----|
A |-----------4L---|--4----|----------------|-----------0L---|--0----|
E |----------------|-------|----------------|----------------|-------|


-----2--0-------|--------0-------|-------|-----2--0-------|----------------|
----------------|--0-------------|-------|----------------|--0-----2-------|
-----------2----|-----2-----2L---|--2----|-----------2----|-----2-----2L---|
----------------|--0--------4L---|--4----|----------------|--2-------------|
----------------|----------------|-------|----------------|-----------4L---|
----------------|----------------|-------|----------------|----------------|


-------|----------------|--2--0--7--5L---|--5----|----------------|
-------|--------0-------|--2-------------|-------|--------3--2----|
--2----|-----------2----|-----------2L---|--2----|----------------|
-------|-----2----------|--0-------------|-------|-----4----------|
--4----|----------------|-----------2L---|--2----|----------------|
-------|----------------|----------------|-------|----------------|


--------7--5L---|--5----|-----4--5-------|--2-------------|-------|
--3-------------|-------|-----------5----|--------3--2L---|--2----|
--6--6-----2L---|--2----|----------------|--2--2-----4L---|--4----|
--0-------------|-------|----------------|--2--------2L---|--2----|
-----------2L---|--2----|----------------|----------------|-------|
----------------|-------|----------------|----------------|-------|


-----4--5-------|--2-------------|-------|----------------|--2--0--7--5L---|
-----------5----|--------0-------|-------|--------3--2----|--5--------2L---|
----------------|--2--2-----2L---|--2----|--------4--2----|--2--------4L---|
----------------|--2-------------|-------|-----2----------|--0-------------|
----------------|-----------2L---|--2----|----------------|-----------4L---|
----------------|----------------|-------|----------------|----------------|


--5----|----------------|--------7--5L---|--5----|-----4--5-------|
--2----|--------3--2----|--3--------2L---|--2----|-----------5----|
--4----|--------4--2----|--4--6----------|-------|----------------|
-------|-----2----------|--3--7-----2L---|--2----|----------------|
--4----|----------------|--5--------4L---|--4----|----------------|
-------|----------------|----------------|-------|----------------|


--2-------------|-------|-----4--5-------|--2-------------|-------||
--------3--2L---|--2----|-----------5----|--------0-------|-------||
--2--2-----4L---|--4----|----------------|--2--2-----2L---|--2----||
--2--------2L---|--2----|----------------|--2-------------|-------||
----------------|-------|----------------|-----------2L---|--2----||
----------------|-------|----------------|----------------|-------||

Login or Register to remove this ad.